>
 >
Baby Elephant Walk

Baby Elephant Walk Guitar Tabs

Henry Mancini - Baby Elephant Walk chords, tabs, tablatures, lyrics

Guitar lessons | Add/correct | Request | Top 50 tabs Artists:  A B C D E F G H I J K L M N O P Q R S T U V W X Y Z 0-9

Baby Elephant Walk Guitar Tabs – Henry Mancini

CD, Sheet music, Poster

Do you like Baby Elephant Walk? Share with your friends now
TabsTabs v2
Song Title: Baby Elephant Dance
Tuning: Normal

This Is A Pretty Easy Song Has Several Parts. I Have Tabbed The Piano, Trombone, Flute. Listen 

To Song For Key Changes. 


Piano Riff Intro (Riff A)
E|-----------------------------|
B|-----------------------------|
G|-----------------------------|
D|-----------------------------|
A|---3--3-----0---3--3-----0---|
E|---1--1--4------1--1--4------|

First Key Change (Riff B)
E|----------------------------|
B|----------------------------|
G|----------------------------|
D|---3--3-----0--3--3-----0---|
A|---1--1--4-----1--1--4------|
E|----------------------------|

Second Key Change (Riff C)

E|----------------------------|
B|----------------------------|
G|---0--0--------0--0---------|
D|---------1--2--------1--2---|
A|---3--3--------3--3---------|
E|----------------------------|

Going Into The Interlude There Is A Changed In The Main Riffs. They Are As Follows. 
Interlude Change 
E|-------------------|---------------------------|-------------------------|
B|-------------------|---------------------------|-------------------------|
G|-------------------|---------------------------|-------------------------|
D|---3--3-----0--3---|---------------------------|------3--3--2--2--0--0---|
A|---1--1--4-----1---|---3--3-----0--3--3-----0--|---3--1--1--0--0---------|
E|-------------------|---1--1--4-----1--1--4-----|---1--------------3--3---|

E|----------------------------|----------------------|-------------------------|
B|----------------------------|----------------------|---2-3-2-3-1-2-3-2-3-1---|
G|----------------------------|----------------------|-------------------------|
D|----------------------------|----------------------|-------------------------|
A|---3--3-----0--3--3-----0---|---3--3-----0--3--3---|-------------------------|
E|---1--1--4-----1--1--4------|---1--1--4-----1------|-------------------------|

E|-------------------------------|
B|-------------------------------|
G|------1-----3--3--1-----1--3---|
D|---3-----3-----------3---------|
A|-------------------------------|
E|-------------------------------|

THere Is A Trombone Part That Repeats Throughout. 

Trombone (Riff A)
E|---17---15---15---|
B|---18---16---16---|
G|------------------|
D|------------------|
A|------------------|
E|------------------|

Trombone (Riff B)
E|------------------|
B|---15---13---13---|
G|---15---13---13---|
D|------------------|
A|------------------|
E|------------------|

Trombone (Riff C)
E|------------------|
B|---17---15---15---|
G|---17---15---15---|
D|------------------|
A|------------------|
E|------------------|

Trombone (Riff D)
E|-----------------------|
B|-----------------------|
G|-----------------------|
D|---10---12---10---13---|
A|------------------12---|
E|-----------------------|

Main Riff 
The Henry Mancini Version Uses A Clarenet I Think. 

E|---------------13--17--15--13---------------|-------------13--17--15--13---------------------|
B|-------10--13------------------15--12--13---|-----10--13------------------15--13-----15------|
G|---10---------------------------------------|-10------------------------------------------13-|
D|--------------------------------------------|------------------------------------------------|
A|--------------------------------------------|------------------------------------------------|
E|--------------------------------------------|------------------------------------------------|

E|---------------------|---------------13--17--15--13---------------|
B|---15----------------|-------10--13------------------15--12--13---|
G|-------12-H-13--10---|---10---------------------------------------|
D|---------------------|--------------------------------------------|
A|---------------------|--------------------------------------------|
E|---------------------|--------------------------------------------|

E|-------15--15------------------|------------------------------------|
B|---13----------16-17-----------|---18--18--16--18--16---------------|
G|----------------------17--17---|-----------------------17--15--13---|
D|-------------------------------|------------------------------------|
A|-------------------------------|------------------------------------|
E|-------------------------------|------------------------------------|

E|------------------------------------------|
B|---12--12--11--12--11--9------------------|
G|--------------------------10------8--10---|
D|------------------------------10----------|
A|------------------------------------------|
E|------------------------------------------|

E|---------------13--17--15--13---------------|-------------13--17--15--13---------------------|
B|-------10--13------------------15--12--13---|-----10--13------------------15--13-----15------|
G|---10---------------------------------------|-10------------------------------------------13-|
D|--------------------------------------------|------------------------------------------------|
A|--------------------------------------------|------------------------------------------------|
E|--------------------------------------------|------------------------------------------------|

E|---------------------|---------------13--17--15--13---------------|
B|---15----------------|-------10--13------------------15--12--13---|
G|-------12-H-13--10---|---10---------------------------------------|
D|---------------------|--------------------------------------------|
A|---------------------|--------------------------------------------|
E|---------------------|--------------------------------------------|

E|-------15--15------------------|------------------------------------|
B|---13----------16-17-----------|---18--18--16--18--16---------------|
G|----------------------17--17---|-----------------------17--15--13---|
D|-------------------------------|------------------------------------|
A|-------------------------------|------------------------------------|
E|-------------------------------|------------------------------------|

E|-----------------------------------|------------------------------|
B|---12--12--11--12--11--9-----------|------------------------------|
G|--------------------------10-------|---10--10--7--7--5--5--3--2---|
D|------------------------------10---|------------------------------|
A|-----------------------------------|------------------------------|
E|-----------------------------------|------------------------------|

The Interlude Change Up.

E|------1--4--1--6--4---|---13--13--13--13--13---|--------------------------------|
B|---1------------------|---11------11--11-------|--------------------------------|
G|----------------------|-------14----------14---|-------13------15--15--13-------|
D|----------------------|------------------------|---15------15--------------15---|
A|----------------------|------------------------|--------------------------------|
E|----------------------|------------------------|--------------------------------|

E|-------------------------|--------------------|---------------13--17--15--13---------------|
B|---13--15-----------13---|---15---------------|-------10--13------------------15--12--13---|
G|----------------15-------|-------12--13--10---|---10---------------------------------------|
D|-------------------------|--------------------|--------------------------------------------|
A|-------------------------|--------------------|--------------------------------------------|
E|-------------------------|--------------------|--------------------------------------------|

E|---15--15------------------|------------------------------------|
B|-----------16-17-----------|---18--18--16--18--16---------------|
G|------------------17--17---|-----------------------17--15--13---|
D|---------------------------|------------------------------------|
A|---------------------------|------------------------------------|
E|---------------------------|------------------------------------|

E|-------------------------------------------|-----------8--13--17--15--13-----------|
B|---12--12--11--12--11--9-------------------|-------10---------------------15--13---|
G|--------------------------10----------10---|---10----------------------------------|
D|------------------------------10--13-------|---------------------------------------|
A|-------------------------------------------|---------------------------------------|
E|-------------------------------------------|---------------------------------------|

E|---------------------------|-----------8--13--17--15--13-------------------|
B|---15------15--------------|-------10---------------------15--12--13--13---|
G|-------13------12-13--10---|---10------------------------------------------|
D|---------------------------|-----------------------------------------------|
A|---------------------------|-----------------------------------------------|
E|---------------------------|-----------------------------------------------|

E|---15--15-------------------|------------------------------------|------------------------|
B|-----------16--17-----------|---18--18--16--18--16---------------|------------------------|
G|-------------------17--17---|-----------------------17--15--13---|------------------------|
D|----------------------------|------------------------------------|---15------12--10--13---|
A|----------------------------|------------------------------------|-------15----------12---|
E|----------------------------|------------------------------------|------------------------|





Comments


Popular Henry Mancini tabs & chords
Moon River Chords
Moon River 2 Chords
A Shot In The Dark Tabs
Baby Elephant Walk 1 Tabs
Experiment In Terror Tabs
Love Story Theme Tabs
Moon River Tabs
The Pink Panther Theme Tabs
Charade Ukulele
Moon River Ukulele


Song lyrics



↑ Back to top | Tablatures and chords are parodies/interpretations of the original songs. You may use it for private study, scholarship, research or language learning purposes only
© 2014 AZChords.com Contact us | Privacy policy | DMCA | Add/correct tabs | Request tabs | Top 50 tabs