» » »

Hendrix Jimi, Purple Haze Tabs (ver.2)

Artists:  A B C D E F G H I J K L M N O P Q R S T U V W X Y Z # 

Purple Haze Tabs (ver.2)

Hendrix Jimi Tabs
 Rating:
4/5 (4 votes)
Purple Haze lessons Tabs too difficult? Try these video lessons and learn fast
                |--------------------------------------------------------------------
|------8-----------------------8---------------------------------------
|----7-----------------------7-----------------------------------------
|-/9---------/5-0---------/9---------/5-0-------------------------------------
-
|--------7----------5/7----------7----------5/7------------------------------
|-----------------0-----------------------0----------------------------
|
|--------------------------------------------------------------------
|--------------------------------------------------------------------
|-------------------------------------------------7-9-9-----------------
|-----5-7-7--5---5---------------5-7-5/7--5-0--/9-----------------------------
-----
|-5/7--------------0-------0-5/7-----------------------------------------
|--------------------0-3-----------------------------------------------

 E7#9    G      A6          E7#9
	purple haze all in my brain
	lately things just don't seem the same
	actin' funny but i don't know why
	s'cuse me while i kiss the sky

purple haze all around
don't know if i'm comin' up or down
am i happy or in misery
whatever it is that girl put a spell on me

help me help me oh no no
oo ah oo ah oo ah oo ah

yeah purple haze all in my eyes
don't know if it's day or night
you got me blowin' blowin' my mind
is it tomorrow or just the end of time

ooh help me ahh yeah
purple haze yeah oh no no oh help me 
tell me baby tell me i cant' go on loke this
your're makin' me blow my mind mama oh no
purple haze no no it's painful baby

[chord reference, as used in this song...]
  E7#9	G	A6		
|--------------------------------------------------------------------
|-8-----3-------5-------------------------------------------------------
|-7-----4-------6-------------------------------------------------------
|-6-----5-------5-------------------------------------------------------
|-7-----5-------7-------------------------------------------------------
|-0-----3-------5-------------------------------------------------------
            
Submit corrections

comments powered by Disqus
↑ Back to top | Hendrix Jimi Tabs for Purple Haze. Lyrics for acoustic guitar and electric guitar. Tablatures and chords are parodies/interpretations of the original songs. You may use it for private study, scholarship, research or language learning purposes only