» » »

Purple Haze Chords (ver.1)

Artists:  A B C D E F G H I J K L M N O P Q R S T U V W X Y Z # 

Purple Haze Chords (ver.1)

Hendrix Jimi
Rating:
0/5 (0 votes)

Hard to play? Try these video lessons and learn fast.
                =0D
CAUTION CAUTION CAUTION CAUTION (VIEW AND PRINT IN NOTEPAD!!)
=0D
anyway here it is
=0D
b=3Dbend
=0D
INTRO
|---------------------------------------------------|
|---------------------8-----------------8-----------|
|-------------------7-----------------7-------------|
|---8---8---8---8-9-----7-5---------9-----7---------|
|---------------------------5-0-5-7---------5-0-5-7-|
|-6---6---6---6-------------------------------------|
=0D
|---------------------------------------------------|
|---------------------------------------------------|
|-----------------------------7-7-7-9---------------|
|---5-7b5-5---------5-7b5-7-9-----------------------|
|-7---------5-----7---------------------------------|
|-------------0-3-----------------------------------|
=0D
THEN (strum once for each \ and for the chord letter itself for
       example  E \ \ \ would mean strum the E chord 4 times)
=0D
E7#9 \ \ \ E7#9 \ \ \ G \ \ \ A \ \ \
=0D
do this for the rest of the song
=0D
Chords used
E7#9=3D 07678x
G=3D 355433
A=3D 577655
(Must barre the A and G or it will not sound right)
=0D
E Mail me corrections, comments, or if you dont understand the E7#9
Alex
            
Hard to play? Try these video lessons and learn fast. | Correct




comments powered by Disqus
↑ Back to top | Tablatures and chords are parodies/interpretations of the original songs. You may use it for private study, scholarship, research or language learning purposes only