>
 >
Just A Little Sign 3

Just A Little Sign 3 Bass Tabs

Helloween - Just A Little Sign 3 chords, tabs, tablatures, lyrics

Guitar lessons | Add/correct | Request | Top 50 tabs Artists:  A B C D E F G H I J K L M N O P Q R S T U V W X Y Z 0-9

Just A Little Sign 3 Bass Tabs – Helloween

CD, Sheet music, Poster

Do you like Just A Little Sign 3? Share with your friends now
Bass TabsBass Tabs v2Bass Tabs v3TabsTabs v2Tabs v3

JUST A LITTLE SIGN (Bassline)
As recorded by Helloween
(From the 2003 Album RABBIT DON'T COME EASY)


	

Words and Music by Andi Deris
Arranged by kevin Mendes

Gtr I (B E A D G B) - 'Bass'

  Q=160
 4/4
  Gtr I
  W          S S S S S S S S S S S S S S S S
|----------|---------------------------------|
|----------|---------------------------------|
|----------|-4-4-4-4-4-4-4-4-4-4-4-4-4-4-4-4-|
|----------|---------------------------------|
|----------|---------------------------------|
|----------|---------------------------------|


  S S S S S S S S S S S S S S S S   S S S S S S S S S S S S S S S S
|---------------------------------|---------------------------------|
|---------------------------------|-8-8-8-8-8-8-8-8-8-8-8-8-8-8-8-8-|
|---------------------------------|---------------------------------|
|-4-4-4-4-4-4-4-4-4-4-4-4-8-8-8-8-|---------------------------------|
|---------------------------------|---------------------------------|
|---------------------------------|---------------------------------|


  S S S S S S S S S S S S S S S S   S S S S S S S S S S S S S S S S
|---------------------------------|---------------------------------|
|---------------------------------|-4-4-4-4-4-4-4-4-4-4-4-4-4-4-4-4-|
|-------------4-4-4-4-4-4---------|---------------------------------|
|---------------------------------|---------------------------------|
|-------------------------4-4-4-4-|---------------------------------|
|-6-6-6-6-6-6---------------------|---------------------------------|


   S  S  S  S  S  S  S  S S S S S S S S S   S S S S S S S S S S S S S S S S
|-----------------------------------------|---------------------------------|
|-11-11-11-11-10-10-10-10-8-8-8-8-6-6-6-6-|---------------------------------|
|-----------------------------------------|-------------4-4-4-4-4-4---------|
|-----------------------------------------|---------------------------------|
|-----------------------------------------|-------------------------4-4-4-4-|
|-----------------------------------------|-6-6-6-6-6-6---------------------|


  S S S S S S S S S S S S S S S S   Q  Q  H      W
|---------------------------------|------------|------|
|---------3-3-4-4-----------------|------------|------|
|-4-4-----------------------------|------------|------|
|-----------------4-4-6-6-6-6-6-6-|------------|------|
|-----4-4-------------------------|------------|------|
|---------------------------------|-4----------|------|


  Q  Q  H      E. S +E  E Q  Q    S S S S S S  S  S S S S S S S S S
|------------|------------------|------------------------------------|
|------------|------------------|-9-8---------13--------9---8--------|
|------------|----1-(1)---1-----|-----1-1-1-1----14-1-1---1---1-1-1--|
|------------|------------------|------------------------------------|
|------------|----------1-------|------------------------------------|
|-4----------|-2-------------2--|------------------------------------|


  E. S +E  E Q  Q    S S S S S S  S  S S S S S S S S S   E. S +E  E Q  Q
|------------------|-----------------------------------|-------------------|
|------------------|-9-8---------13--------9---8-------|-------------------|
|----1-(1)---1-----|-----1-1-1-1----14-1-1---1---1-1-1-|----1-(1)---1------|
|------------------|-----------------------------------|-------------------|
|----------1-------|-----------------------------------|----------1--------|
|-2-------------2--|-----------------------------------|-2-------------2---|


  S S S S S S S S S S S S S S S S   S S S S S S S S S S S S S S S S
|---------------------------------|---------------------------------|
|---------------------------------|---------------------------------|
|---------------------------------|---------------------------------|
|-2-2-2-2-2-2-2-2-2-2-2-2-2-2-2-2-|-6-6-6-6-6-6-6-6-6-6-6-6-6-6-6-6-|
|---------------------------------|---------------------------------|
|---------------------------------|---------------------------------|


  S S S S S S S S S S S S S S S S   S S S S S S S S S S S S S S S S
|---------------------------------|---------------------------------|
|-4-4-4-4-4-4-4-4-4-4-4-4-4-4-4-4-|---------------------------------|
|---------------------------------|---------------------------------|
|---------------------------------|-6-6-6-6-6-6-6-6-6-6-6-6-6-6-6-6-|
|---------------------------------|---------------------------------|
|---------------------------------|---------------------------------|


  S S S S S S S S S S S S S S S S   S S S S S S S S S S S S S S S S
|---------------------------------|---------------------------------|
|-4-4-4-4-4-4-4-4-4-4-4-4-4-4-4-4-|---------------------------------|
|---------------------------------|---------------------------------|
|---------------------------------|-6-6-6-6-6-6-6-6-6-6-6-6-6-6-6-6-|
|---------------------------------|---------------------------------|
|---------------------------------|---------------------------------|


  S S S S S S S S S S S S S S S S   S S S S S S S S S S S S S S S S
|---------------------------------|---------------------------------|
|-4-4-4-4-4-4-4-4-4-4-4-4-4-4-4-4-|---------------------------------|
|---------------------------------|---------------------------------|
|---------------------------------|-6-6-6-6-6-6-6-6-6-6-6-6-6-6-6-6-|
|---------------------------------|---------------------------------|
|---------------------------------|---------------------------------|


  W          S S S S S S S S S S S S S S S S
|----------|---------------------------------|
|-6--------|-4-4-4-4-4-4-4-4-4-4-4-4-4-4-4-4-|
|----------|---------------------------------|
|----------|---------------------------------|
|----------|---------------------------------|
|----------|---------------------------------|


  S S S S S S S S S S S S S S S S   S S S S S S S S S S S S S S S S
|---------------------------------|---------------------------------|
|---------------------------------|-4-4-4-4-4-4-4-4-4-4-4-4-4-4-4-4-|
|---------------------------------|---------------------------------|
|-6-6-6-6-6-6-6-6-6-6-6-6-6-6-6-6-|---------------------------------|
|---------------------------------|---------------------------------|
|---------------------------------|---------------------------------|


  S S S S S S S S S S S S S S S S   S S S S S S S S S S S S S S S S
|---------------------------------|---------------------------------|
|---------------------------------|-4-4-4-4-4-4-4-4-4-4-4-4-4-4-4-4-|
|---------------------------------|---------------------------------|
|-6-6-6-6-6-6-6-6-6-6-6-6-6-6-6-6-|---------------------------------|
|---------------------------------|---------------------------------|
|---------------------------------|---------------------------------|


  S S S S S S S S S S S S S S S S   S S S S S S S S S S S S S S S S
|---------------------------------|---------------------------------|
|---------------------------------|-4-4-4-4-4-4-4-4-4-4-4-4-4-4-4-4-|
|---------------------------------|---------------------------------|
|-6-6-6-6-6-6-6-6-6-6-6-6-6-6-6-6-|---------------------------------|
|---------------------------------|---------------------------------|
|---------------------------------|---------------------------------|


  S S S S S S S S S S S S S S S S   W
|---------------------------------|------|
|---------------------------------|-6----|
|---------------------------------|------|
|-6-6-6-6-6-6-6-6-6-6-6-6-6-6-6-6-|------|
|---------------------------------|------|
|---------------------------------|------|


  S S S S S S S S S S S S S S S S   S S S S S S S S S S S S S S S S
|---------------------------------|---------------------------------|
|---------------------------------|---------------------------------|
|-4-4-4-4-4-4-4-4-4-4-4-4-4-4-4-4-|---------------------------------|
|---------------------------------|-4-4-4-4-4-4-4-4-4-4-4-4-8-8-8-8-|
|---------------------------------|---------------------------------|
|---------------------------------|---------------------------------|


  S S S S S S S S S S S S S S S S   S S S S S S S S S S S S S S S S
|---------------------------------|---------------------------------|
|-8-8-8-8-8-8-8-8-8-8-8-8-8-8-8-8-|---------------------------------|
|---------------------------------|-------------4-4-4-4-4-4---------|
|---------------------------------|---------------------------------|
|---------------------------------|-------------------------4-4-4-4-|
|---------------------------------|-6-6-6-6-6-6---------------------|


  S S S S S S S S S S S S S S S S    S  S  S  S  S  S  S  S S S S S S S S S
|---------------------------------|-----------------------------------------|
|-4-4-4-4-4-4-4-4-4-4-4-4-4-4-4-4-|-11-11-11-11-10-10-10-10-8-8-8-8-6-6-6-6-|
|---------------------------------|-----------------------------------------|
|---------------------------------|-----------------------------------------|
|---------------------------------|-----------------------------------------|
|---------------------------------|-----------------------------------------|


  S S S S S S S S S S S S S S S S   S S S S S S S S S S S S S S S S
|---------------------------------|---------------------------------|
|---------------------------------|---------3-3-4-4-----------------|
|-------------4-4-4-4-4-4---------|-4-4-----------------------------|
|---------------------------------|-----------------4-4-6-6-6-6-6-6-|
|-------------------------4-4-4-4-|-----4-4-------------------------|
|-6-6-6-6-6-6---------------------|---------------------------------|


  S S S S S S S S S S S S S S S S   S S S S S S S S S S S S S S S S
|---------------------------------|---------------------------------|
|---------------------------------|---------------------------------|
|-4-4-4-4-4-4-4-4-4-4-4-4-4-4-4-4-|---------------------------------|
|---------------------------------|-4-4-4-4-4-4-4-4-4-4-4-4-8-8-8-8-|
|---------------------------------|---------------------------------|
|---------------------------------|---------------------------------|


  S S S S S S S S S S S S S S S S   S S S S S S S S S S S S S S S S
|---------------------------------|---------------------------------|
|-8-8-8-8-8-8-8-8-8-8-8-8-8-8-8-8-|---------------------------------|
|---------------------------------|-------------4-4-4-4-4-4---------|
|---------------------------------|---------------------------------|
|---------------------------------|-------------------------4-4-4-4-|
|---------------------------------|-6-6-6-6-6-6---------------------|


  S S S S S S S S S S S S S S S S    S  S  S  S  S  S  S  S S S S S S S S S
|---------------------------------|-----------------------------------------|
|-4-4-4-4-4-4-4-4-4-4-4-4-4-4-4-4-|-11-11-11-11-10-10-10-10-8-8-8-8-6-6-6-6-|
|---------------------------------|-----------------------------------------|
|---------------------------------|-----------------------------------------|
|---------------------------------|-----------------------------------------|
|---------------------------------|-----------------------------------------|


  S S S S S S S S S S S S S S S S   S S S S S S S S S S S S S S S S
|---------------------------------|---------------------------------|
|---------------------------------|---------3-3-4-4-----------------|
|-------------4-4-4-4-4-4---------|-4-4-----------------------------|
|---------------------------------|-----------------4-4-6-6-6-6-6-6-|
|-------------------------4-4-4-4-|-----4-4-------------------------|
|-6-6-6-6-6-6---------------------|---------------------------------|


  S S S S S S  S  S S S S S S S S S   E. S +E  E Q  Q
|-----------------------------------|------------------|
|---8---------13--------9---8-------|------------------|
|-----1-1-1-1----14-1-1---1---1-1-1-|----1-(1)---1-----|
|-7---------------------------------|------------------|
|-----------------------------------|----------1-------|
|-----------------------------------|-2-------------2--|


  S S S S S S  S  S S S S S S S S S   E. S +E  E Q  Q
|-----------------------------------|------------------|
|-9-8---------13--------9---8-------|------------------|
|-----1-1-1-1----14-1-1---1---1-1-1-|----1-(1)---1-----|
|-----------------------------------|------------------|
|-----------------------------------|----------1-------|
|-----------------------------------|-2-------------2--|


  S S S S S S S S S S S S S S S S   S S S S S S S S S S S S S S S S
|---------------------------------|---------------------------------|
|---------------------------------|---------------------------------|
|---------------------------------|---------------------------------|
|-2-2-2-2-2-2-2-2-2-2-2-2-2-2-2-2-|-6-6-6-6-6-6-6-6-6-6-6-6-6-6-6-6-|
|---------------------------------|---------------------------------|
|---------------------------------|---------------------------------|


  S S S S S S S S S S S S S S S S   S S S S S S S S S S S S S S S S
|---------------------------------|---------------------------------|
|-4-4-4-4-4-4-4-4-4-4-4-4-4-4-4-4-|---------------------------------|
|---------------------------------|---------------------------------|
|---------------------------------|-6-6-6-6-6-6-6-6-6-6-6-6-6-6-6-6-|
|---------------------------------|---------------------------------|
|---------------------------------|---------------------------------|


  S S S S S S S S S S S S S S S S   S S S S S S S S S S S S S S S S
|---------------------------------|---------------------------------|
|-4-4-4-4-4-4-4-4-4-4-4-4-4-4-4-4-|---------------------------------|
|---------------------------------|---------------------------------|
|---------------------------------|-6-6-6-6-6-6-6-6-6-6-6-6-6-6-6-6-|
|---------------------------------|---------------------------------|
|---------------------------------|---------------------------------|


  S S S S S S S S S S S S S S S S   S S S S S S S S S S S S S S S S
|---------------------------------|---------------------------------|
|-4-4-4-4-4-4-4-4-4-4-4-4-4-4-4-4-|---------------------------------|
|---------------------------------|---------------------------------|
|---------------------------------|-6-6-6-6-6-6-6-6-6-6-6-6-6-6-6-6-|
|---------------------------------|---------------------------------|
|---------------------------------|---------------------------------|


  W          S S S S S S S S S S S S S S S S
|----------|---------------------------------|
|-6--------|---------------------------------|
|----------|-4-4-4-4-4-4-4-4-4-4-4-4-4-4-4-4-|
|----------|---------------------------------|
|----------|---------------------------------|
|----------|---------------------------------|


  S S S S S S S S S S S S S S S S   S S S S S S S S S S S S S S S S
|---------------------------------|---------------------------------|
|---------------------------------|-8-8-8-8-8-8-8-8-8-8-8-8-8-8-8-8-|
|---------------------------------|---------------------------------|
|-4-4-4-4-4-4-4-4-4-4-4-4-8-8-8-8-|---------------------------------|
|---------------------------------|---------------------------------|
|---------------------------------|---------------------------------|


  S S S S S S S S S S S S S S S S   S S S S S S S S S S S S S S S S
|---------------------------------|---------------------------------|
|---------------------------------|-4-4-4-4-4-4-4-4-4-4-4-4-4-4-4-4-|
|-------------4-4-4-4-4-4---------|---------------------------------|
|---------------------------------|---------------------------------|
|-------------------------4-4-4-4-|---------------------------------|
|-6-6-6-6-6-6---------------------|---------------------------------|


   S  S  S  S  S  S  S  S S S S S S S S S   S S S S S S S S S S S S S S S S
|-----------------------------------------|---------------------------------|
|-11-11-11-11-10-10-10-10-8-8-8-8-6-6-6-6-|---------------------------------|
|-----------------------------------------|-------------4-4-4-4-4-4---------|
|-----------------------------------------|---------------------------------|
|-----------------------------------------|-------------------------4-4-4-4-|
|-----------------------------------------|-6-6-6-6-6-6---------------------|


  S S S S S S S S S S S S S S S S   S S S S S S S S S S S S S S S S
|---------------------------------|---------------------------------|
|---------3-3-4-4-----------------|---------------------------------|
|-4-4-----------------------------|-4-4-4-4-4-4-4-4-4-4-4-4-4-4-4-4-|
|-----------------4-4-6-6-6-6-6-6-|---------------------------------|
|-----4-4-------------------------|---------------------------------|
|---------------------------------|---------------------------------|


  S S S S S S S S S S S S S S S S   S S S S S S S S S S S S S S S S
|---------------------------------|---------------------------------|
|---------------------------------|-8-8-8-8-8-8-8-8-8-8-8-8-8-8-8-8-|
|---------------------------------|---------------------------------|
|-4-4-4-4-4-4-4-4-4-4-4-4-8-8-8-8-|---------------------------------|
|---------------------------------|---------------------------------|
|---------------------------------|---------------------------------|


  S S S S S S S S S S S S S S S S   S S S S S S S S S S S S S S S S
|---------------------------------|---------------------------------|
|---------------------------------|-4-4-4-4-4-4-4-4-4-4-4-4-4-4-4-4-|
|-------------4-4-4-4-4-4---------|---------------------------------|
|---------------------------------|---------------------------------|
|-------------------------4-4-4-4-|---------------------------------|
|-6-6-6-6-6-6---------------------|---------------------------------|


   S  S  S  S  S  S  S  S S S S S S S S S   S S S S S S S S S S S S S S S S
|-----------------------------------------|---------------------------------|
|-11-11-11-11-10-10-10-10-8-8-8-8-6-6-6-6-|---------------------------------|
|-----------------------------------------|-------------4-4-4-4-4-4---------|
|-----------------------------------------|---------------------------------|
|-----------------------------------------|-------------------------4-4-4-4-|
|-----------------------------------------|-6-6-6-6-6-6---------------------|


  S S S S S S S S S S S S S S S S   S S S S S S S S H      W
|---------------------------------|----------------------|------|
|---------3-3-4-4-----------------|----------------------|------|
|-4-4-----------------------------|----------------------|------|
|-----------------4-4-6-6-6-6-6-6-|----------------------|------|
|-----4-4-------------------------|----------------------|------|
|---------------------------------|-4-4---4-4---4-4------|------|


  S S S S S S S S H      W          S S S S S S S S H
|----------------------|----------|----------------------|
|----------------------|----------|----------------------|
|----------------------|----------|----------------------|
|----------------------|----------|----------------------|
|----------------------|----------|----------------------|
|-4-4---4-4---4-4------|----------|-4-4---4-4---4-4------|


  W          S S S S S S S S H      W
|----------|----------------------|------|
|----------|----------------------|------|
|----------|----------------------|------|
|----------|----------------------|------|
|----------|----------------------|------|
|----------|-4-4---4-4---4-4------|------|


  S S S S S S S S H      W          S S S S S S S S H
|----------------------|----------|----------------------|
|----------------------|----------|----------------------|
|----------------------|----------|----------------------|
|----------------------|----------|----------------------|
|----------------------|----------|----------------------|
|-4-4---4-4---4-4------|----------|-4-4---4-4---4-4------|


  W          S S S S S S S S H      W
|----------|----------------------|------|
|----------|----------------------|------|
|----------|----------------------|------|
|----------|----------------------|------|
|----------|----------------------|------|
|----------|-4-4---4-4---4-4------|------|


  S S S S S S S S H      S S S S S S S S H      S S S S S S S S H
|----------------------|----------------------|----------------------|
|----------------------|----------------------|----------------------|
|----------------------|----------------------|----------------------|
|----------------------|----------------------|----------------------|
|----------------------|----------------------|----------------------|
|-4-4---4-4---4-4------|-4-4---4-4---4-4------|-4-4---4-4---4-4------|


  S S S S S S S S H      E E E E E E E E   E E E E E E E E   E E E E E E E E
|----------------------|-----------------|-----------------|-----------------|
|----------------------|-----------------|-----------------|-----------------|
|----------------------|-----------------|-----------------|-----------------|
|----------------------|-----------------|-----------------|-----------------|
|----------------------|-----------------|-----------------|-----------------|
|-4-4---4-4---4-4------|-4---4---4---4---|-4---4---4---4---|-0---0---0---0---|


  E E E E E E E E   E E E E E E E E   E E E E E E E E   E E E E E E E E
|-----------------|-----------------|-----------------|-----------------|
|-----------------|-----------------|-----------------|-----------------|
|-----------------|-----------------|-----------------|-----------------|
|-----------------|-----------------|-----------------|-----------------|
|-----------------|-----------------|-----------------|-----------------|
|-0---0---0---0---|-4---4---4---4---|-4---4---4---4---|-0---0---0---0---|


  E E E E E E E E   S S S S S S S S S S S S S S E
|-----------------|-------------------------------|
|-----------------|-------------------------------|
|-----------------|-------------------------------|
|-----------------|-------------------------------|
|-----------------|-------------------------------|
|-0---0---0---0---|-4-4---4-4---4-4---4-4---4-4-4-|


  S S S S S S S S S S S S S S E   S S S S S S S S S S S S S S E
|-------------------------------|--------------------------------|
|-------------------------------|--------------------------------|
|-------------------------------|--------------------------------|
|-------------------------------|--------------------------------|
|-------------------------------|--------------------------------|
|-4-4---4-4---4-4---4-4---4-4-4-|-4-4---4-4---4-4---4-4---4-4-4--|


  S S S S S S S S S S S S S S E   E S S S S S S S S S S S S S S
|-------------------------------|--------------------------------|
|-------------------------------|--------------------------------|
|-------------------------------|--------------------------------|
|-------------------------------|-4-4-4-4-4-4-4-4-4-4-4-4-4-4-4--|
|-------------------------------|--------------------------------|
|-4-4---4-4---4-4---4-4---4-4-4-|--------------------------------|


  S S S S S S S S S S S S S S S S   S S S S S S S S S S S S S S E
|---------------------------------|-------------------------------|
|-4-4-4-4-4-4-4-4-4-4-4-4-4-4-4-4-|-------------------------------|
|---------------------------------|-------------------------------|
|---------------------------------|-------------------------------|
|---------------------------------|-------------------------------|
|---------------------------------|-4-4---4-4---4-4---4-4---4-4-4-|


  S S S S S S S S S S S S S S E   E E Q  H      W
|-------------------------------|-------------|------|
|-------------------------------|-------------|------|
|-------------------------------|-------------|------|
|-------------------------------|-------------|------|
|-------------------------------|-------------|------|
|-4-4---4-4---4-4---4-4---4-4-4-|-4-----------|------|


  S S S S S S S S S S S S S S S S   S S S S S S S S S S S S S S S S
|---------------------------------|---------------------------------|
|---------------------------------|---------------------------------|
|-4-4-4-4-4-4-4-4-4-4-4-4-4-4-4-4-|---------------------------------|
|---------------------------------|-4-4-4-4-4-4-4-4-4-4-4-4-8-8-8-8-|
|---------------------------------|---------------------------------|
|---------------------------------|---------------------------------|


  S S S S S S S S S S S S S S S S   S S S S S S S S S S S S S S S S
|---------------------------------|---------------------------------|
|-8-8-8-8-8-8-8-8-8-8-8-8-8-8-8-8-|---------------------------------|
|---------------------------------|-------------4-4-4-4-4-4---------|
|---------------------------------|---------------------------------|
|---------------------------------|-------------------------4-4-4-4-|
|---------------------------------|-6-6-6-6-6-6---------------------|


  S S S S S S S S S S S S S S S S    S  S  S  S  S  S  S  S S S S S S S S S
|---------------------------------|-----------------------------------------|
|-4-4-4-4-4-4-4-4-4-4-4-4-4-4-4-4-|-11-11-11-11-10-10-10-10-8-8-8-8-6-6-6-6-|
|---------------------------------|-----------------------------------------|
|---------------------------------|-----------------------------------------|
|---------------------------------|-----------------------------------------|
|---------------------------------|-----------------------------------------|


  S S S S S S S S S S S S S S S S   S S S S S S S S S S S S S S S S
|---------------------------------|---------------------------------|
|---------------------------------|---------3-3-4-4-----------------|
|-------------4-4-4-4-4-4---------|-4-4-----------------------------|
|---------------------------------|-----------------4-4-6-6-6-6-6-6-|
|-------------------------4-4-4-4-|-----4-4-------------------------|
|-6-6-6-6-6-6---------------------|---------------------------------|


  S S S S S S S S S S S S S S S S   S S S S S S S S S S S S S S S S
|---------------------------------|---------------------------------|
|---------------------------------|---------------------------------|
|-4-4-4-4-4-4-4-4-4-4-4-4-4-4-4-4-|---------------------------------|
|---------------------------------|-4-4-4-4-4-4-4-4-4-4-4-4-8-8-8-8-|
|---------------------------------|---------------------------------|
|---------------------------------|---------------------------------|


  S S S S S S S S S S S S S S S S   S S S S S S S S S S S S S S S S
|---------------------------------|---------------------------------|
|-8-8-8-8-8-8-8-8-8-8-8-8-8-8-8-8-|---------------------------------|
|---------------------------------|-------------4-4-4-4-4-4---------|
|---------------------------------|---------------------------------|
|---------------------------------|-------------------------4-4-4-4-|
|---------------------------------|-6-6-6-6-6-6---------------------|


  S S S S S S S S S S S S S S S S    S  S  S  S  S  S  S  S S S S S S S S S
|---------------------------------|-----------------------------------------|
|-4-4-4-4-4-4-4-4-4-4-4-4-4-4-4-4-|-11-11-11-11-10-10-10-10-8-8-8-8-6-6-6-6-|
|---------------------------------|-----------------------------------------|
|---------------------------------|-----------------------------------------|
|---------------------------------|-----------------------------------------|
|---------------------------------|-----------------------------------------|


  S S S S S S S S S S S S S S S S   S S S S S S S S S S S S S S S S
|---------------------------------|---------------------------------|
|---------------------------------|---------3-3-4-4-----------------|
|-------------4-4-4-4-4-4---------|-4-4-----------------------------|
|---------------------------------|-----------------4-4-6-6-6-6-6-6-|
|-------------------------4-4-4-4-|-----4-4-------------------------|
|-6-6-6-6-6-6---------------------|---------------------------------|


  S S S S S S S S S S S S S S S S   S S S S S S S S S S S S S S S S
|---------------------------------|---------------------------------|
|---------------------------------|---------------------------------|
|-4-4-4-4-4-4-4-4-4-4-4-4-4-4-4-4-|-4-4-4-4-4-4-4-4-4-4-4-4---------|
|---------------------------------|-------------------------4-4-4-4-|
|---------------------------------|---------------------------------|
|---------------------------------|---------------------------------|


  S S S S S S S S S S S S S S S S   S S S S S S S S S S S S S S S S
|---------------------------------|---------------------------------|
|---------------------------------|---------------------------------|
|---------------------------------|---------------------------------|
|---------------------------------|-------------------------4-4-4-4-|
|---------------------------------|---------------------------------|
|-4-4-4-4-4-4-4-4-4-4-4-4-4-4-4-4-|-4-4-4-4-4-4-4-4-4-4-4-4---------|


  S S S S S S S S S S S S S S S S   S S S S S S S S S S S S S S S S
|---------------------------------|---------------------------------|
|---------------------------------|---------------------------------|
|-4-4-4-4-4-4-4-4-4-4-4-4-4-4-4-4-|-4-4-4-4-4-4-4-4-4-4-4-4---------|
|---------------------------------|-------------------------4-4-4-4-|
|---------------------------------|---------------------------------|
|---------------------------------|---------------------------------|


  S S S S S S S S S S S S S S S S   S S S S S S S S S S S S S S S S
|---------------------------------|---------------------------------|
|---------------------------------|---------------------------------|
|---------------------------------|---------------------------------|
|---------------------------------|-------------------------4-4-4-4-|
|---------------------------------|---------------------------------|
|-4-4-4-4-4-4-4-4-4-4-4-4-4-4-4-4-|-4-4-4-4-4-4-4-4-4-4-4-4---------|


  S S S S S S S S S S S S S S S S   S S S S S S S S S S S S S S S S
|---------------------------------|---------------------------------|
|---------------------------------|---------------------------------|
|-4-4-4-4-4-4-4-4-4-4-4-4-4-4-4-4-|---------------------------------|
|---------------------------------|-4-4-4-4-4-4-4-4-4-4-4-4-8-8-8-8-|
|---------------------------------|---------------------------------|
|---------------------------------|---------------------------------|


  S S S S S S S S S S S S S S S S   S S S S S S S S S S S S S S S S
|---------------------------------|---------------------------------|
|-8-8-8-8-8-8-8-8-8-8-8-8-8-8-8-8-|---------------------------------|
|---------------------------------|-------------4-4-4-4-4-4---------|
|---------------------------------|---------------------------------|
|---------------------------------|-------------------------4-4-4-4-|
|---------------------------------|-6-6-6-6-6-6---------------------|


  S S S S S S S S S S S S S S S S    S  S  S  S  S  S  S  S S S S S S S S S
|---------------------------------|-----------------------------------------|
|-4-4-4-4-4-4-4-4-4-4-4-4-4-4-4-4-|-11-11-11-11-10-10-10-10-8-8-8-8-6-6-6-6-|
|---------------------------------|-----------------------------------------|
|---------------------------------|-----------------------------------------|
|---------------------------------|-----------------------------------------|
|---------------------------------|-----------------------------------------|


  S S S S S S S S S S S S S S S S   S S S S S S S S S S S S S S S S
|---------------------------------|---------------------------------|
|---------------------------------|---------3-3-4-4-----------------|
|-------------4-4-4-4-4-4---------|-4-4-----------------------------|
|---------------------------------|-----------------4-4-6-6-6-6-6-6-|
|-------------------------4-4-4-4-|-----4-4-------------------------|
|-6-6-6-6-6-6---------------------|---------------------------------|


  S S S S S S S S S S S S S S S S   S S S S S S S S S S S S S S S S
|---------------------------------|---------------------------------|
|---------------------------------|---------------------------------|
|-4-4-4-4-4-4-4-4-4-4-4-4-4-4-4-4-|---------------------------------|
|---------------------------------|-4-4-4-4-4-4-4-4-4-4-4-4-8-8-8-8-|
|---------------------------------|---------------------------------|
|---------------------------------|---------------------------------|


  S S S S S S S S S S S S S S S S   S S S S S S S S S S S S S S S S
|---------------------------------|---------------------------------|
|-8-8-8-8-8-8-8-8-8-8-8-8-8-8-8-8-|---------------------------------|
|---------------------------------|-------------4-4-4-4-4-4---------|
|---------------------------------|---------------------------------|
|---------------------------------|-------------------------4-4-4-4-|
|---------------------------------|-6-6-6-6-6-6---------------------|


  S S S S S S S S S S S S S S S S    S  S  S  S  S  S  S  S S S S S S S S S
|---------------------------------|-----------------------------------------|
|-4-4-4-4-4-4-4-4-4-4-4-4-4-4-4-4-|-11-11-11-11-10-10-10-10-8-8-8-8-6-6-6-6-|
|---------------------------------|-----------------------------------------|
|---------------------------------|-----------------------------------------|
|---------------------------------|-----------------------------------------|
|---------------------------------|-----------------------------------------|


  S S S S S S S S S S S S S S S S   S S S S S S S S S S S S S S S S
|---------------------------------|---------------------------------|
|---------------------------------|---------3-3-4-4-----------------|
|-------------4-4-4-4-4-4---------|-4-4-----------------------------|
|---------------------------------|-----------------4-4-6-6-6-6-6-6-|
|-------------------------4-4-4-4-|-----4-4-------------------------|
|-6-6-6-6-6-6---------------------|---------------------------------|


  S S S S S S  S  S S S S S S S S S   E. S +E  E Q  Q
|-----------------------------------|------------------|
|---8---------13--------9---8-------|------------------|
|-----1-1-1-1----14-1-1---1---1-1-1-|----1-(1)---1-----|
|-7---------------------------------|------------------|
|-----------------------------------|----------1-------|
|-----------------------------------|-2-------------2--|


  S S S S S S  S  S S S S S S S S S   E. S +E  E Q  Q
|-----------------------------------|------------------|
|-9-8---------13--------9---8-------|------------------|
|-----1-1-1-1----14-1-1---1---1-1-1-|----1-(1)---1-----|
|-----------------------------------|------------------|
|-----------------------------------|----------1-------|
|-----------------------------------|-2-------------2--|


  S S S S S S S S S S S S S S E   S S S S S S S S H
|-------------------------------|----------------------*|
|-------------------------------|----------------------*|
|-1-1---1-1---1-1---1-1---1-1---|-1-1---1-1---1-1------*|
|-------------------------------|----------------------*|
|-------------------------------|----------------------*|
|-------------------------------|----------------------*|



Duration Legend
---------------
W - whole; H - half; Q - quarter; E - 8th; S - 16th; T - 32nd; X - 64th; a - acciaccatura
+ - note tied to previous; . - note dotted; .. - note double dotted
Uncapitalized letters represent notes that are staccato (1/2 duration)
Irregular groupings are notated above the duration line
Duration letters will always appear directly above the note/fret number it represents the
duration for.  Duration letters with no fret number below them represent rests.  Multi-
bar rests are notated in the form Wxn, where n is the number of bars to rest for.  Low
melody durations appear below the staff

Tablature Legend
----------------
 h   - hammer-on
 p   - pull-off
 b   - bend
 pb  - pre-bend
 r   - bend release (if no number after the r, then release immediately)
 /\  - slide into or out of (from/to "nowhere")
 s   - legato slide
 S   - shift slide
 - natural harmonic
[n]  - artificial harmonic
n(n) - tapped harmonic
 ~   - vibrato
 tr  - trill
 T   - tap
 TP  - trem. picking
 PM  - palm muting
\n/  - tremolo bar dip; n = amount to dip
 \n  - tremolo bar down
 n/  - tremolo bar up
/n\  - tremolo bar inverted dip
 =   - hold bend; also acts as connecting device for hammers/pulls
 <> - volume swell (louder/softer)
 x   - on rhythm slash represents muted slash
 o   - on rhythm slash represents single note slash

Misc Legend
-----------
 |  - bar
||  - double bar
||o - repeat start
o|| - repeat end
*|  - double bar (ending)
 :  - bar (freetime)
 $  - Segno
 &  - Coda
Tempo markers -  = BPM(8/16=s8/s16), where s8 = swing 8ths, s16 = swing 16ths





Comments


Popular Helloween tabs & chords
Im Alive 2 Bass Tabs
Lavdate Dominvm 2 Bass Tabs
Rise And Fall 2 Bass Tabs
I Want Out Drum Tabs
Future World 3 Tabs
I Want Out Tabs
I Want Out 2 Tabs
If I Could Fly Tabs
Nabataea Intro Tabs
Paint A New World Intro Tabs


Song lyrics



↑ Back to top | Tablatures and chords are parodies/interpretations of the original songs. You may use it for private study, scholarship, research or language learning purposes only
© 2014 AZChords.com Contact us | Privacy policy | DMCA | Add/correct tabs | Request tabs | Top 50 tabs