» » »

Helloween, Just A Little Sign Tabs (ver.1)

Artists:  A B C D E F G H I J K L M N O P Q R S T U V W X Y Z # 

Just A Little Sign Tabs (ver.1)

Helloween Tabs
Rating:
0/5 (0 votes)
Just A Little Sign lessons Tabs too difficult? Try these video lessons and learn fast
                [Riff 1] 1x
[Riff 2] 1x
[Riff 3] 3x

[Riff 4] 4x with lyrics:
Here I stand alone again
Hundreds all around (hundreds all around)
Didn't come here to make a friend
                                          D5 w/ [Fill 1]
But to listen to the sound (listen to the sound)

[Riff 4] 4x with lyrics:
Something's growing in my plans
As she looks into my eyes
Now I smile the whole damn night
                                D5 w/ [Fill 1]
But my dream acts cold as ice

[Riff 1] 2x with lyrics:
It's time for just a little sign
It's time, make believe the world is mine
It's time for just a little sign
It's time, make believe the world is mine
Just a little sign

[Riff 3] 2x

[Riff 4] 4x with lyrics:
Shouldn't I dare to talk to her
But what is it I would say (is it I would say)
Surely I'd look like a clown
                            D5 w/ [Fill 1]
For my smiles freeze on my face

[Riff 1] 2x with lyrics:
It's time for just a little sign
It's time, make believe the world is mine
It's time for just a little sign
It's time, make believe the world is mine
Just a little sign

[Riff 5] 11x
[Riff 6] 7x
[Riff 7] 1x
[Riff 8] 2x
[Riff 9] 1x
[Riff 10] 1x
[Riff 8] 2x
[Riff 9] 1x
[Riff 11] 1x


[Solo]:
e|------------------------------------------------------------------------------------|
B|---15b17--15b17--15b17--15b17------------15br--12--10--0--8--0----------------------|
G|-------------------------------14b16~----------------------------14b16r14--12-------|
D|-------------------------------------------------------------------------------14---|
A|------------------------------------------------------------------------------------|
E|------------------------------------------------------------------------------------|

[Riff 1] 2x


It's time for just a little sign
It's time, make believe the world is mine

[Riff 1] 2x with lyrics:
It's time for just a little sign
It's time, make believe the world is mine
It's time for just a little sign
It's time, make believe the world is mine

[Riff 3] 2x with lyrics:
Just a little sign
Just a little sign

[Outro]
e|----------------------------------------------------------------------|
B|----------------------------------------------------------------------|
G|----------------------------------------------------------------------|
D|----------------------------------------------------------------------|
A|---2--2---2--2---2--2---2--2---2--2-------2--2---2--2---2--2---2--2---|
E|---0--0---0--0---0--0---0--0---0--0-------0--0---0--0---0--0---0--0---|
            
Submit corrections

comments powered by Disqus
↑ Back to top | Helloween Tabs for Just A Little Sign. Lyrics for acoustic guitar and electric guitar. Tablatures and chords are parodies/interpretations of the original songs. You may use it for private study, scholarship, research or language learning purposes only