>
 >
Heavy Metal (Is The Law)

Heavy Metal (Is The Law) Bass Tabs

Helloween - Heavy Metal (Is The Law) chords, tabs, tablatures, lyrics

Guitar lessons | Add/correct | Request | Top 50 tabs Artists:  A B C D E F G H I J K L M N O P Q R S T U V W X Y Z 0-9

Heavy Metal (Is The Law) Bass Tabs – Helloween

CD, Sheet music, Poster

Do you like Heavy Metal (Is The Law)? Share with your friends now
Bass Tabs
G||------------------|------------------|------------------|------------------|
D||------------------|------------------|------------------|------------------|
A||------------------|------------------|------------------|------------------|
E||------------------|------------------|------------------|------------------|


                                                                            
------------------|------------------|------------------|------------------|
------------------|------------------|------------------|------------------|
------------------|------------------|------------------|------------------|
------------------|------------------|------------------|------------------|


                                                              
------------------|-------------------|----------------------|
------------------|-------------------|----------------------|
------------------|-------------------|----------6--5--3-----|
------------------|--3----------------|-------------------6--|


                                                                       
----------------------|------------------------|----------------------|
----------------------|------------------------|----------------------|
----------------------|------------6--5--3-----|----------------------|
--3----3----3----3----|--3----3-------------6--|--1----1----1----1----|


                                                                           
------------------------|----------------------|--------------------------|
------------------------|----------------------|--5-----5--5--------------|
------------------------|----------------------|--------------6--5--3-----|
--1----1----1--3--5--6--|--3----3----3----3----|-----3-----------------6--|


                                                         
----------------------------|---------------------------|
----------------------------|---------------------------|
----------------------------|---------------6--5--3-----|
--6h3-3--3--3--6h3-3--3--3--|--6h3-3--3--3-----------6--|


                                                         
----------------------------|---------------------------|
----------------------------|---------------------------|
----------------------------|---------------6--5--3-----|
--6h3-3--3--3--6h3-3--3--3--|--6h3-3--3--3-----------6--|


                                                         
----------------------------|---------------------------|
----------------------------|---------------------------|
----------------------------|---------------------------|
--3h1-1--1--1--3h1-1--1--1--|--3h1-1--1--1--1--3--5--6--|


                                                        
----------------------------|--------------------------|
----------------------------|--5-----5-----------------|
----------------------------|--------------6--5--3-----|
--6h3-3--3--3--6h3-3--3--3--|-----3-----3-----------6--|


                                                         
----------------------------|---------------------------|
----------------------------|---------------------------|
----------------------------|---------------6--5--3-----|
--6h3-3--3--3--6h3-3--3--3--|--6h3-3--3--3-----------6--|


                                                         
----------------------------|---------------------------|
----------------------------|---------------------------|
----------------------------|---------------6--5--3-----|
--6h3-3--3--3--6h3-3--3--3--|--6h3-3--3--3-----------6--|


                                                         
----------------------------|---------------------------|
----------------------------|---------------------------|
----------------------------|---------------------------|
--3h1-1--1--1--3h1-1--1--1--|--3h1-1--1--1--1--3--5--6--|


                                                         
----------------------------|---------------------------|
----------------------------|---------------------------|
----------------------------|---------------6--5--3-----|
--6h3-3--3--3--6h3-3--3--3--|--6h3-3--3--3-----------6--|


                                                       
--------------------------|---------------------------|
--------------------1--0--|---------------------------|
--------1--0--3--1--------|---------------------------|
--3--1--------------------|--3h1-1--1--1--1--1--1--1--|


                                                         
----7------5----------------|---------------------------|
--8---8--7---7--5--5--------|---------------------------|
----------------------3--1--|---------------------------|
----------------------------|--3h1-1--1--1--1--1--1--1--|


                                                        
----7------5----------------|--------------------------|
--8---8--7---7--5--5--------|--------------------------|
----------------------3--1/-|--5--5--5--5--5--5--5--5--|
----------------------------|--------------------------|


                                                      
------------------------|----------------------------|
------------------------|----------------------------|
--5--5--5--5--6----8----|----------------------------|
------------------------|--6h3-3--3--3--6h3-3--3--3--|


                                                         
---------------------------|----------------------------|
---------------------------|----------------------------|
---------------6--5--3-----|----------------------------|
--6h3-3--3--3-----------6--|--6h3-3--3--3--6h3-3--3--3--|


                                                         
---------------------------|----------------------------|
---------------------------|----------------------------|
---------------6--5--3-----|----------------------------|
--6h3-3--3--3-----------6--|--3h1-1--1--1--3h1-1--1--1--|


                                                         
---------------------------|----------------------------|
---------------------------|----------------------------|
---------------------------|----------------------------|
--3h1-1--1--1--1--3--5--6--|--6h3-3--3--3--6-3-3--5--6--|


                                                        
--------------------------|----------------------------|
--------3--5--3-----------|----------------------------|
--3--5-----------5--3-----|----------------------------|
-----------------------6--|--6h3-3--3--3--6h3-3--3--3--|


                                                         
---------------------------|----------------------------|
---------------------------|----------------------------|
---------------6--5--3-----|----------------------------|
--6h3-3--3--3-----------6--|--6h3-3--3--3--6h3-3--3--3--|


                                                         
---------------------------|----------------------------|
---------------------------|----------------------------|
---------------6--5--3-----|----------------------------|
--6h3-3--3--3-----------6--|--3h1-1--1--1--3h1-1--1--1--|


                                                       
---------------------------|--------------------------|
---------------------------|--------------3--5--3-----|
---------------------------|--------3--5-----------5--|
--3h1-1--1--1--1--3--5--6--|--3--6--------------------|


                                                      
--------------------------|--------------------------|
--3-----------------------|--------------------1--0--|
-----5--3-----3-----------|--------1--0--3--1--------|
-----------6-----6--5--3--|--3--1--------------------|


                                                         
---------------------------|----7------5----------------|
---------------------------|--8---8--7---7--5--5--------|
---------------------------|----------------------3--1--|
--3h1-1--1--1--1--1--1--1--|----------------------------|


                                                         
---------------------------|----7------5----------------|
---------------------------|--8---8--7---7--5--5--------|
---------------------------|----------------------3--1/-|
--3h1-1--1--1--1--1--1--1--|----------------------------|


                                                                      
--------------------------|-----------------------|------------------|
--------------------------|-----------------------|------------------|
--5--5--5--5--5--5--5--5--|--5--5--5--5--5--------|------------------|
--------------------------|-----------------------|------------------|


                                                      
--------------------------|--------------------------|
--------------------------|--------------------------|
--------------6--6--6--6--|--------------5--5--5--5--|
--3--3--3--3--------------|--6--6--6--6--------------|


                                                      
--------------------------|--------------------5--7--|
--------------------------|-----------5--7--8--------|
--6--6--6--6--8--8--8--8--|--5--6--8-----------------|
--------------------------|--------------------------|


                                                      
--------------------------|--------------------------|
--------------------------|--------------------------|
--6--6--6--6--8--8--8--8--|--5--5--5--5--------------|
--------------------------|--------------3--3--3--3--|


                                                                      
--------------------------|-------------------|----------------------|
--------------------------|-------------------|----------------------|
--6--6--6--6--8--8--8--8--|-------------------|----------6--5--3-----|
--------------------------|--3----------------|-------------------6--|


                                                                       
----------------------|------------------------|----------------------|
----------------------|------------------------|----------------------|
----------------------|------------6--5--3-----|----------------------|
--3----3----3----3----|--3----3-------------6--|--1----1----1----1----|


                                                                           
------------------------|----------------------|--------------------------|
------------------------|----------------------|--5-----5--5--------------|
------------------------|----------------------|--------------6--5--3-----|
--1----1----1--3--5--6--|--3----3----3----3----|-----3-----------------6--|


                                                      
--------------------------|--------------------------|
--------------------------|--------------------------|
--------------6--6--6--6--|--------------5--5--5--5--|
--3--3--3--3--------------|--6--6--6--6--------------|


                                                      
--------------------------|--------------------5--7--|
--------------------------|-----------5--7--8--------|
--6--6--6--6--8--8--8--8--|--5--6--8-----------------|
--------------------------|--------------------------|


                                                      
--------------------------|--------------------------|
--------------------------|--------------------------|
--6--6--6--6--8--8--8--8--|--5--5--5--5--------------|
--------------------------|--------------3--3--3--3--|


                                                      
--------------------------|--------------7--7--7--7--|
--------------------------|--------------------------|
--6--6--6--6--8--8--8--8--|--5--5--5--5--------------|
--------------------------|--------------------------|


                                                      
--------------------5--7--|--------------------------|
-----------5--7--8--------|--------------------------|
--5--6--8-----------------|--------------6--6--6--6--|
--------------------------|--3--3--3--3--------------|


                                                      
--------------------------|--------------------------|
--------------------------|--------------------------|
--3--3--3--3--0--0--------|--------------5--5--5--5--|
--------------------3--3--|--1--1--1--1--------------|


                                                          
--------------------------|------------------------------|
--------------------------|--------------10--10--10--10--|
--1--1--1--1--------------|--6--6--6--6------------------|
--------------3--3--1--1--|------------------------------|


                                                      
--------------------------|--------8--8--7--7--5--5--|
--7--7--7--7--------------|--------------------------|
--------------8--8--6--6--|--5--5--------------------|
--------------------------|--------------------------|


                                                      
--------------------------|--------------------------|
--8--8--7--7--5--5--4--4--|--------------------------|
--------------------------|--------------6--6--6--6--|
--------------------------|--3--3--3--3--------------|


                                                      
--------------------------|--------------------------|
--------------------------|--------------------------|
--3--3--3--3--0--0--------|--------------5--5--5--5--|
--------------------3--3--|--1--1--1--1--------------|


                                                          
--------------------------|------------------------------|
--------------------------|--------------10--10--10--10--|
--1--1--1--1--------------|--6--6--6--6------------------|
--------------3--3--1--1--|------------------------------|


                                                      
--------------------------|--------8--8--7--7--5--5--|
--7--7--7--7--------------|--------------------------|
--------------8--8--6--6--|--5--5--------------------|
--------------------------|--------------------------|


                                                            
--------------------------|--------------------------------|
--8--8--7--7--5--5--4--4--|--5-5-5-5-5-5-5-----------------|
--------------------------|--------------------------------|
--------------------------|-----------------3-3-3-3-3-3-3--|


                                                                  
--------------------------------|--------------------------------|
--5-5-5-5-5-5-5-----------------|--5-5-5-5-5-5-5-----------------|
--------------------------------|--------------------------------|
-----------------3-3-3-3-3-3-3--|-----------------3-3-3-3-3-3-3--|


                                                             
--------------------------------|---------------------------|
--5-5-5-5-5-5-5-----------------|---------------------------|
--------------------------------|--5-5-3--------3-----------|
-----------------3-3-3-3-3-3-3--|---------6--5-----6--5--3--|


                                                         
---------------------------|----------------------------|
---------------------------|--3h5-5--5--5--3h5-5--5--5--|
--5-5-3--------3-----------|----------------------------|
---------6--5-----6--5--3--|----------------------------|


                                                       
---------3---------------|----------------------------|
--3h5-5----5h3--5--------|--3h5-5--5--5--3h5-5--5--5--|
-------------------------|----------------------------|
-------------------------|----------------------------|


                                                                       
---------3---------------|--------------------10-10-12-12-10-10-------|
--3h5-5----5h3--5--------|----------10--12-12-------------------12-12-|
-------------------------|--10--13------------------------------------|
-------------------------|--------------------------------------------|


                                                                
--------------------------------|------------------------------|
--11-11-10-10-----10------------|--5--3------------------------|
--------------13------10--------|--------5--4-4-3-3-1-1-3-3-1--|
--------------------------------|------------------------------|


                                                                               
------------------------|----------------------------|------------------------|
------------------------|----------------------------|------------------------|
--0-0-1--0--------------|----------------------------|------------------------|
------------1--3--------|--3--3--3-3-3--3--3--3-3-3--|--3--3--3-3-3--3--------|


                                                      
----------------------------|------------------------|
----------------------------|------------------------|
----------------------------|------------------------|
--3--3--3-3-3--3--3--3-3-3--|--3--3--3-3-3--3--------|


                                                                         
----------------------------7-7-7-7--|--10h12-12-12-12h10-----12--------|
--------------8--8-10-10-10----------|--------------------12------------|
--7-10-10--10------------------------|----------------------------------|
-------------------------------------|----------------------------------|


                                                                  
--12--10-------------------------------|-------------------------|
----------12--11-11-10-10-8-8-10-10-8--|--7-7-8--7---------------|
---------------------------------------|------------8--10--------|
---------------------------------------|-------------------------|


                                                      
----------------------------|------------------------|
----------------------------|------------------------|
----------------------------|------------------------|
--3--3--3-3-3--3--3--3-3-3--|--3--3--3-3-3--3--------|


                                                      
----------------------------|------------------------|
----------------------------|------------------------|
----------------------------|------------------------|
--3--3--3-3-3--3--3--3-3-3--|--3--3--3-3-3--3--------|


                                                      
----------------------------|------------------------|
----------------------------|------------------------|
----------------------------|------------------------|
--3--3--3-3-3--3--3--3-3-3--|--3--3--3-3-3--3--------|


                                                           
-------------------------------|--------------------------|
--5--3-------------------------|--------------------------|
--------5-5-4-4-3-3-1-1-3-3-1--|--0-0-1-1-0-0-------------|
-------------------------------|--------------1--3--------|


                                                              
------------------------------|------------------------------|
------------------------------|------------------------------|
------------------------------|------------------------------|
--3--3-3--3-3-3-3--3-3--3-3-3-|--3--3-3--3-3-3-3--3-3--3-3-3-|


                                                               
------------------------------|-------------------------------|
------------------------------|-------------------------------|
------------------------------|-------------------------------|
--3--3-3--3-3-3-3--3-3--3-3-3-|--3--3-3--3-3-3-3--3-3-3-3-3-3-|


                                                      
--------------------------|--------------------------|
--------------------------|--------------------------|
--------------6--6--6--6--|--------------5--5--5--5--|
--3--3--3--3--------------|--6--6--6--6--------------|


                                                      
--------------------------|--------------------5--7--|
--------------------------|-----------5--7--8--------|
--6--6--6--6--8--8--8--8--|--5--6--8-----------------|
--------------------------|--------------------------|


                                                      
--------------------------|--------------------------|
--------------------------|--------------------------|
--6--6--6--6--8--8--8--8--|--5--5--5--5--------------|
--------------------------|--------------3--3--3--3--|


                                                      
--------------------------|--------------------------|
--------------------------|--------------------------|
--6--6--6--6--8--8--8--8--|--5--5--5--5--5--5--5--5--|
--------------------------|--------------------------|


                                                      
--------------------5--7--|--------------------------|
-----------5--7--8--------|--------------------------|
--5--6--8-----------------|--------------6--6--6--6--|
--------------------------|--3--3--3--3--------------|


                                                      
--------------------------|--------------------------|
--------------------------|--------------------------|
--------------5--5--5--5--|--6--6--6--6--8--8--8--8--|
--6--6--6--6--------------|--------------------------|


                                                      
--------------------5--7--|--------------------------|
-----------5--7--8--------|--------------------------|
--5--6--8-----------------|--6--6--6--6--8--8--8--8--|
--------------------------|--------------------------|


                                                                          
--------------------------|--------------------------|-------------------|
--------------------------|--------------------------|-------------------|
--5--5--5--5--------------|--6--6--6--6--8--8--8--8--|-------------------|
--------------3--3--3--3--|--------------------------|--3----------------|


                                                                           
----------------------|--------------------------|------------------------|
----------------------|--------------------1--0--|------------------------|
----------6--5--3-----|--------1--0--3--1--------|------------------------|
-------------------6--|--3--1--------------------|--6h3-3--3--3--3--------|


                    
------------------||
------------------||
------------------||
------------------||





Comments


Popular Helloween tabs & chords
Future World 2 Bass Tabs
Just A Little Sign Bass Tabs
Lavdate Dominvm Bass Tabs
Push Bass Tabs
Rise And Fall 2 Bass Tabs
Victim Of Fate 2 Bass Tabs
Twilight Of The Gods Chords
How Many Tears Tabs
I Can 3 Tabs
Why? Tabs


Song lyrics



↑ Back to top | Tablatures and chords are parodies/interpretations of the original songs. You may use it for private study, scholarship, research or language learning purposes only
© 2014 AZChords.com Contact us | Privacy policy | DMCA | Add/correct tabs | Request tabs | Top 50 tabs