» » »

Helloween, Heavy Metal (Is The Law) Tabs (ver.1)

Artists:  A B C D E F G H I J K L M N O P Q R S T U V W X Y Z # 

Heavy Metal (Is The Law) Tabs (ver.1)

Helloween Tabs
 Rating:
4/5 (4 votes)
Heavy Metal (Is The Law) lessons Tabs too difficult? Try these video lessons and learn fast
1
                Intro:

Main Riff
|------------------------------------------------------------------|
|------------------------------------------------------------------|  x 2
|------------------------------------------------------------------|
|------------------------------------------------------------------|
|--------------------------------------------------6-6-5-5-3-3-----|
|--6p3-3-3-3-3-3-3-6p3-3-3-3-3-3-3-6p3-3-3-3-3-3-3------------6-6--|

|------------------------------------------------------------------|
|------------------------------------------------------------------|
|------------------------------------------------------------------|
|------------------------------------------------------------------|
|--------------------------------------------------------------3-3-|
|--3p1-1-1-1-1-1-1-3p1-1-1-1-1-1-1-3p1-1-1-1-1-1-1-3-3-5-5-6-6-----|

|------------------------------------------------------------------|
|------------------------------------------------------------------|
|------------------------------------------------------------------|
|------------------------------------------------------------------|
|-------------------------------------------------6-6-5-5-3-3------|
|--6p3-3-3-3-3-3-3-6p3-3-3-3-3-3-3-6p3-3-3-3-3-3-3------------6-6--|

Verse 1
Main riff x 2

Bridge

|-------------------------------------------------------------------|
|-------------------------------------------------------------------|
|-------------------------------------------------------------------|
|-------------1-0---------------------------------------------------|
|-1-0-3-1-3-1-------------------------------------------------------|
|------------------3p1-1-1-1-1-1-1-6-6-5-5-3-3-1-1--3p1-1-1-1-1-1-1-|

|------------------------------------------------------------------|
|------------------------------------------------------------------|
|------------------------------------------------------------------|
|-----------------------------------------------8---10-------------|
|-----------------------------------------------6----8-------------|
|-6-6-5-5-3-3-1-1--5-5-5-5-5-5-5-5-5-5-5-5-5-----------------------|

Verse 2
Main riff x 2

Bridge

Chorus

|------------------------------------------------------------------|
|------------------------------------------------------------------|
|------------------------------------------------------------------|
|--------8-----------7-----8-----10---4-5-7-8-7-5---------8-----10-|
|--5-----6-----8-----5-----6------8---------------8-5-----6------8-|
|--3-----------6---------------------------------------------------|

|------------------------------------------------------------------|
|------------------------------------------------------------------|
|------------------------------------------------------------------|
|--7-----------8-----10--------------------------------------------|
|--5-----------6------8--------------------------------------------|
|--------6---------------------------------------------------------|

Intro: main riff

Solo

|------------------------------------------------------------------|
|------3-----------------------------------------------------------|
|--5b-----5----3h5h3h5h0h3h0h3-------------------------------------|
|--------------------------------3h5h3h5h0h3h0h3-0-----------------|
|------------------------------------------------------------------|
|------------------------------------------------------------------|

|------------------------------------------------------------------|
|------------------------------------------------------------------|
|--19--17--15--14--12--10--8--7--5--3--2--0----0-------------------|
|----------------------------------------------0-------------------|
|------------------------------------------------------------------|
|------------------------------------------------------------------|

|------------------------------------------------------------------|
|------------------------------------------------------------------|
|------------------------7----8------10---7-----------------7----8-|
|--------7----8----10------------------------10--8-----10----------|
|--10--------------------------------------------------------------|
|------------------------------------------------------------------|

|----------------13-10-10-10---------------------------------------|
|----------------------------13-11-10-10---------------------------|
|----------------------------------------12-11-10-10---------------|
|-10--8-7-8--10---------------------------------------12-11-10-10--|
|------------------------------------------------------------------|
|------------------------------------------------------------------|

|-------------------------------------------------------------------|
|-------------------------------------------------------------------|
|-------------------------------------------------------------------|
|-------------------------------------------------------------------|
|--12-12-10-10-------------------9-9-10-10-11-11--------------------|
|--------------13-13-10-10-13-13------------------------------------|


|--------11-------------------------10--------------------8---------------|
|--11--------11-13-11-10------10--------10-11-10-8-----8------8-10-8  x 2-|
|-----12-----------------12------10----------------10----8----------------|
|-------------------------------------------------------------------------|
|-------------------------------------------------------------------------|
|-------------------------------------------------------------------------|

|--------------------------------------------------------------------|
|--------------------------------------------------------------------|
|--10-8--------------------------------------------------------------|
|--------7-7-7-7-----------------------------------------------------|
|----------------10-10-10-10-8-8-8-8-6-6-6-6-------------------------|
|--------------------------------------------10-10-10-10-8-8-8-8-666-|


|----------------------------------------------------------------------------|
|----------------------------------------------------------------------------|
|----------------------------------------------------------------------------|
|----------------------------------------------------------------------------|
|--5-3---3-----------5-3--3--------------------------------------------------|
|------6---6-5-6-5-------6--6-5-6-5---1h3333333-1h333333-1h3333333--6-5-1-3--|

bass solo

¡heavy metal....hey! x 4

Chorus x 2

Outro:main riff


HELLOWEEN RULES!!!!!!

HEAVY METAL IS THE LAW!!!!!!!
            
Submit corrections

comments powered by Disqus
↑ Back to top | Helloween Tabs for Heavy Metal (Is The Law). Lyrics for acoustic guitar and electric guitar. 1 Tablatures and chords are parodies/interpretations of the original songs. You may use it for private study, scholarship, research or language learning purposes only