>
 >
Falling Higher 1

Falling Higher 1 Bass Tabs

Helloween - Falling Higher 1 chords, tabs, tablatures, lyrics

Guitar lessons | Add/correct | Request | Top 50 tabs Artists:  A B C D E F G H I J K L M N O P Q R S T U V W X Y Z 0-9

Falling Higher 1 Bass Tabs – Helloween

CD, Sheet music, Poster

Do you like Falling Higher 1? Share with your friends now
Bass TabsBass Tabs v2Tabs
tune down


F#||-------------------|--------------------|-------------------|
C#||-------------------|--------------------|-------------------|
G#||-------------------|----------3----5----|-------------------|
D#||--0----------------|--------------------|--0----------------|


                                                              
---------------------|-------------------|-------------------|
---------------------|-------------------|-------------------|
--3-------------5----|-------------------|--3----------------|
-----------3---------|--0----------------|-------------------|


                                                                    
--------------------|--------------------|-------------------------|
--------------------|--------------------|------------------5------|
-----------3--------|--5--------5--------|--7--------5--7-------5--|
--3-----------------|--------------------|------5-7----------------|


                                                                      
---------------------|-------------------------|---------------------|
---------------------|------------------5------|---------------------|
--3--------3----5----|--7--------5--7-------5--|--3-------------5----|
---------------------|------5-7----------------|-----------3---------|


                                                                         
-------------------------|---------------------|------------------------|
------------------5------|---------------------|--5--5--5---------------|
--7--------5--7-------5--|--3------3--3--------|-------------3--3--3----|
------5-7----------------|---------------------|------------------------|


                                                                          
------------7---------|--------------------------|-----------------------|
-------7---------7----|--------------------------|-----------------------|
--5-------------------|--7--------5--7--------5--|--7--------5--5--------|
----------------------|-----7--7--------7--7-----|-----7--7--------------|


                                                                              
--------------------------|-----------------------|--------------------------|
--------------------------|-----------------------|--------------------------|
--7--------5--7--------5--|--7--------5-----------|--7--------5--7--------5--|
-----7--7--------7--7-----|-----7--7-----8--------|-----7--7--------7--7-----|


                                                                       
-----------------------|--------------------------|-------------------|
-----------------------|--------------------------|-------------------|
--7--------5--5--------|--7--------5--7--------5--|-------------------|
-----7--7--------------|-----7--7--------7--7-----|--0----------------|


                                                                               
--------------------------|------------------------|--------------------------|
--------------------------|------------------------|--------------------------|
--------------------------|--5---5--5--5-5----6----|--7---7--7--7-7---7--7--7-|
--3---3--3--3-3---3--3--3-|------------------------|--------------------------|


                                                                             
------------------------|--------------------------|------------------------|
------------------------|--------------------------|------------------------|
--3---3--3--3-3----5----|--------------------------|--5---5--5--5-5----6----|
------------------------|--3---3--3--3-3---3--3--3-|------------------------|


                                                   
-------------------------|------------------------|
-------------------------|------------------------|
--7---7--7--7-3---3--3---|--5---5---5---5---5--5--|
-------------------------|------------------------|


                                                                      
----------------------------------|----------------------------------|
----------------------------------|----------------------------------|
----------------------------------|--5-5-5-5-5-5-5-5-5-5-5-5-5-5-5-5-|
--0-0-0-0-0-0-0-0-0-0-0-0-0-0-0-0-|----------------------------------|


                                                                      
----------------------------------|----------------------------------|
----------------------------------|----------------------------------|
----------------------------------|------------------5-5-5-5-5-5-5-5-|
--0-0-0-0-0-0-0-0-0-0-0-0-0-0-0-0-|--3-3-3-3-3-3-3-3-----------------|


                                                                      
----------------------------------|----------------------------------|
----------------------------------|----------------------------------|
----------------------------------|--5-5-5-5-5-5-5-5-5-5-5-5-5-5-5-5-|
--0-0-0-0-0-0-0-0-0-0-0-0-0-0-0-0-|----------------------------------|


                                                           
----------------------------------|-----------------------|
----------------------------------|-----------------------|
----------------------------------|--3----5--7--5----7----|
--0-0-0-0-0-0-0-0-0-0-0-0-0-0-0-0-|-----------------------|


                                                       
--------------------------|---------------------------|
--------------------------|---------------------------|
--7--------5--7--------5--|--7--------7--5----7-7-5-5-|
-----7--7--------7--7-----|-----7--7------------------|


                                                                              
--------------------------|-----------------------|--------------------------|
--------------------------|-----------------------|--------------------------|
--7--------5--7--------5--|--7--------7--5--------|--7--------5--7--------5--|
-----7--7--------7--7-----|-----7--7--------------|-----7--7--------7--7-----|


                                                                                
---------------------------|--------------------------|------------------------|
---------------------------|--------------------------|------------------------|
--7--------7--5----7-7-5-5-|--7--------7--5--5--7--5--|--3---2---3--5---0---5--|
-----7--7------------------|-----7--7-----------------|------------------------|


                                                            
----------------------------------|------------------------|
----------------------------------|------------------------|
--------------------------2-2-2-2-|--3---2---3--5---0---5--|
--0-0-0-0-2-2-2-2-3-3-3-3---------|------------------------|


                                                                              
--------------------------|-----------------------|--------------------------|
--------------------------|-----------------------|--------------------------|
--7--------5--7--------5--|--7--------5--5--------|--7--------5--7--------5--|
-----7--7--------7--7-----|-----7--7--------------|-----7--7--------7--7-----|


                                                                           
-----------------------|--------------------------|-----------------------|
-----------------------|--------------------------|-----------------------|
--7--------5-----------|--7--------5--7--------5--|--7--------5--5--------|
-----7--7-----8--------|-----7--7--------7--7-----|-----7--7--------------|


                                                        
--------------------------|----------------------------|
--------------------------|---------------7------7--7--|
--7--------5--7--------5--|--7--9--10--9-----10--------|
-----7--7--------7--7-----|----------------------------|


                                                                               
--------------------------|------------------------|--------------------------|
--------------------------|------------------------|--------------------------|
--------------------------|--5---5--5--5-5----6----|--7---7--7--7-7---7--7--7-|
--3---3--3--3-3---3--3--3-|------------------------|--------------------------|


                                                                             
------------------------|--------------------------|------------------------|
------------------------|--------------------------|------------------------|
--3---3--3--3-3----5----|--------------------------|--5---5--5--5-5----6----|
------------------------|--3---3--3--3-3---3--3--3-|------------------------|


                                                   
-------------------------|------------------------|
-------------------------|------------------------|
--7---7--7--7-3---3--3---|--5---5---5---5---5--5--|
-------------------------|------------------------|


                                                                      
----------------------------------|----------------------------------|
----------------------------------|----------------------------------|
----------------------------------|--5-5-5-5-5-5-5-5-5-5-5-5-5-5-5-5-|
--0-0-0-0-0-0-0-0-0-0-0-0-0-0-0-0-|----------------------------------|


                                                                      
----------------------------------|----------------------------------|
----------------------------------|----------------------------------|
----------------------------------|------------------5-5-5-5-5-5-5-5-|
--0-0-0-0-0-0-0-0-0-0-0-0-0-0-0-0-|--3-3-3-3-3-3-3-3-----------------|


                                                                      
----------------------------------|----------------------------------|
----------------------------------|----------------------------------|
----------------------------------|--5-5-5-5-5-5-5-5-5-5-5-5-5-5-5-5-|
--0-0-0-0-0-0-0-0-0-0-0-0-0-0-0-0-|----------------------------------|


                                                           
----------------------------------|-----------------------|
----------------------------------|-----------------------|
----------------------------------|--3----5--7--5----7----|
--0-0-0-0-0-0-0-0-0-0-0-0-0-0-0-0-|-----------------------|


                                                       
--------------------------|---------------------------|
--------------------------|---------------------------|
--7--------5--7--------5--|--7--------7--5----7-7-5-5-|
-----7--7--------7--7-----|-----7--7------------------|


                                                                              
--------------------------|-----------------------|--------------------------|
--------------------------|-----------------------|--------------------------|
--7--------5--7--------5--|--7--------7--5--------|--7--------5--7--------5--|
-----7--7--------7--7-----|-----7--7--------------|-----7--7--------7--7-----|


                                                                                
---------------------------|--------------------------|------------------------|
---------------------------|--------------------------|------------------------|
--7--------7--5----7-7-5-5-|--7--------7--5--5--7--5--|--3---2---3--5---0---5--|
-----7--7------------------|-----7--7-----------------|------------------------|


                                                                                
----------------------------------|------------------------|-------------------|
----------------------------------|------------------------|-------------------|
--------------------------2-2-2-2-|--3---2---3--5---0---5--|-------------------|
--0-0-0-0-2-2-2-2-3-3-3-3---------|------------------------|--0----------------|


                                                           
-------------------7--9------|----------------------------|
------------9--10--------10--|--7--9--10--7--9--7---------|
--7--9--10-------------------|---------------------10--9--|
-----------------------------|----------------------------|


                                                           
-----------------------------|----------------------------|
--7--------------------------|------------7--9--10--------|
-----10--9--7--10--9--7------|--7--9--10------------------|
-------------------------10--|----------------------8--7--|


                                                          
----------------------------|----------------------------|
----------------------7--7--|----------------7--7--9--9--|
--7--7--9--9--10--10--------|--9--9--10--10--------------|
----------------------------|----------------------------|


                                                            
--------------------------7--|---------7--9------7--9--11--|
------7--9--10--7--9--10-----|--9--10--------10------------|
--10-------------------------|-----------------------------|
-----------------------------|-----------------------------|


                                                       
--9------------------------|--------------------------|
------10---9--7------------|-----------------------7--|
-----------------10--9--7--|--5--5--5--5--5--7--8-----|
---------------------------|--------------------------|


                                                                                
--------------------------|--------------------------|-------------------------|
--8--8--8--8--7--7--------|-----------------------7--|--8--8--8--8--7--5-------|
--------------------8--8--|--5--5--5--5--5--7--8-----|-------------------------|
--------------------------|--------------------------|--------------------8----|


                                                      
--------------------------|--------------------------|
-----------------------7--|--8--8--8--8--7--7--------|
--5--5--5--5--5--7--8-----|--------------------8--8--|
--------------------------|--------------------------|


                                                     
--------------------------|-------------------------|
-----------------------7--|--8--8--8--8--7--5-------|
--5--5--5--5--5--7--8-----|-------------------------|
--------------------------|--------------------8----|


                                                       
---------------------7--5--|--------------------------|
--------------10-----------|--5--5--5--5-----5--------|
--8--8--8--8------8--------|--------------5-----7--5--|
---------------------------|--------------------------|


                                                       
--------------------------|-------------------10------|
--------------5-----7--5--|-----------5--7--------10--|
--3--3--3--3-----7--------|--8--7--8------------------|
--------------------------|---------------------------|


                                                       
---------------------7--5--|--------------------------|
--------------10-----------|--5--5--5--5-----5--------|
--8--8--8--8------8--------|--------------5-----7--5--|
---------------------------|--------------------------|


                                                      
--------------------------|--------------------5--7--|
--------------5-----7--5--|-----------5--7--8--------|
--3--3--3--3-----7--------|--8--7--8-----------------|
--------------------------|--------------------------|


                                     
------------------------------------|
--------------------------------9-9-|
--7-7-7-7-7-7-7-7-7-7-9-9-10-10-----|
------------------------------------|


                                               
----------------------------------------------|
--10-10-10-10-------------9-9-9-9-------------|
--------------10-10-10-10---------10-10-10-10-|
----------------------------------------------|


                                                                          
------------------------------------|------------------------------------|
--------------------------------9-9-|--10-10-9-9-7-7-9-9-9-9-9-9---------|
--7-7-7-7-7-7-7-7-7-7-9-9-10-10-----|------------------------------------|
------------------------------------|----------------------------7-7-7-7-|


                                     
------------------------------------|
--------------------------------9-9-|
--7-7-7-7-7-7-7-7-7-7-9-9-10-10-----|
------------------------------------|


                                               
----------------------------------------------|
--10-10-10-10-------------9-9-9-9-------------|
--------------10-10-10-10---------10-10-10-10-|
----------------------------------------------|


                                                                          
------------------------------------|------------------------------------|
--------------------------------9-9-|--10-10-9-9-7-7-9-9-9-9-9-9---------|
--7-7-7-7-7-7-7-7-7-7-9-9-10-10-----|------------------------------------|
------------------------------------|----------------------------7-7-7-7-|


                                                      
--------------------------|--------------------------|
--------------------------|--------------------------|
--------------------------|--3--3--3--3--3--3--3--3--|
--0--0--0--0--0--0--0--0--|--------------------------|


                                                                              
--------------------------|-----------------------|--------------------------|
--------------------------|-----------------------|--------------------------|
--------------------------|--3---3---3--3---------|--------------------------|
--0--0--0--0--0--0--0--0--|------------------3----|--0--0--0--0--0--0--0--0--|


                                                                        
--------------------------|------------------------|-------------------|
--------------------------|------------------------|-------------------|
--3--3--3--3--3--3--3--3--|-------------3---3---3--|--5----------------|
--------------------------|--3---3---3-------------|-------------------|


                                                                      
----------------------------------|----------------------------------|
----------------------------------|----------------------------------|
----------------------------------|--5-5-5-5-5-5-5-5-5-5-5-5-5-5-5-5-|
--0-0-0-0-0-0-0-0-0-0-0-0-0-0-0-0-|----------------------------------|


                                                                      
----------------------------------|----------------------------------|
----------------------------------|----------------------------------|
----------------------------------|------------------5-5-5-5-5-5-5-5-|
--0-0-0-0-0-0-0-0-0-0-0-0-0-0-0-0-|--3-3-3-3-3-3-3-3-----------------|


                                                                      
----------------------------------|----------------------------------|
----------------------------------|----------------------------------|
----------------------------------|--5-5-5-5-5-5-5-5-5-5-5-5-5-5-5-5-|
--0-0-0-0-0-0-0-0-0-0-0-0-0-0-0-0-|----------------------------------|


                                                           
----------------------------------|-----------------------|
----------------------------------|-----------------------|
----------------------------------|--3----5--7--5----7----|
--0-0-0-0-0-0-0-0-0-0-0-0-0-0-0-0-|-----------------------|


                                                                              
--------------------------|-----------------------|--------------------------|
--------------------------|-----------------------|--------------------------|
--7--------5--7--------5--|--7--------7--5--------|--7--------5--7--------5--|
-----7--7--------7--7-----|-----7--7--------------|-----7--7--------7--7-----|


                                                                           
-----------------------|--------------------------|-----------------------|
-----------------------|--------------------------|-----------------------|
--7--------7--5--------|--7--------5--7--------5--|--7--------7--5--------|
-----7--7--------------|-----7--7--------7--7-----|-----7--7--------------|


                                                    
--------------------------|------------------------|
--------------------------|------------------------|
--7--------7--5--5--7--5--|--3---2---3--5---0---5--|
-----7--7-----------------|------------------------|


                                                            
----------------------------------|------------------------|
----------------------------------|------------------------|
--------------------------2-2-2-2-|--3---2---3--5---0---5--|
--0-0-0-0-2-2-2-2-3-3-3-3---------|------------------------|


                                                            
----------------------------------|------------------------|
----------------------------------|------------------------|
--------------------------2-2-2-2-|--3---2---3--5---0---5--|
--0-0-0-0-2-2-2-2-3-3-3-3---------|------------------------|


                                                            
----------------------------------|------------------------|
----------------------------------|------------------------|
--------------------------2-2-2-2-|--3---2---3--5---0---5--|
--0-0-0-0-2-2-2-2-3-3-3-3---------|------------------------|


                                                                        
--------------19----|--14-14-14-14-19-19-19-19-14-14-14-14-------------|
--------------------|--------------------------------------------------|
--------------------|--------------------------------------17-17-17-17-|
--------------------|--------------------------------------------------|


                                                   
--------------------------------------------------|
--------------------------------------------------|
--17-17-17-17-17-17-17-17-17-17-17-17-17-17-17-17-|
--------------------------------------------------|


                                                              
--------------------------------------|----------------------|
--------------------------------------|----------------------|
--17-17-17-17-17-17-17-17/5--5--5--5--|--5----5----5----5----|
--------------------------------------|----------------------|


                                                                 
--7------------------|----------------------|-------------------|
-------7-------------|----------------------|-------------------|
------------9--------|----------------------|-------------------|
---------------------|----------------------|--------------0----|


                                            
------------------|------------------------|
------------------|------------------------|
------------------|------------------7--5--|
------------------|----------0-0-0-0-------|


                                                              
-------------------------------------|----------------------||
-------------------------------------|----------------------||
----7-7-7-5-5-----7-7-5--------------|--7-7-5---------------||
--0-----------0-0--------7-7-7-7-7-7-|---------0------------||





Comments


Popular Helloween tabs & chords
Invitation 2 Bass Tabs
Savage Bass Tabs
Time Goes By Chords
A Million To One Tabs
Forever And One Tabs
Madness Of The Crowds Tabs
Nabataea Intro Tabs
Sun For The World Tabs
The Time Of The Oath Tabs
Eagle Fly Free Ukulele


Song lyrics



↑ Back to top | Tablatures and chords are parodies/interpretations of the original songs. You may use it for private study, scholarship, research or language learning purposes only
© 2014 AZChords.com Contact us | Privacy policy | DMCA | Add/correct tabs | Request tabs | Top 50 tabs