>
 >
Falling Higher

Falling Higher Guitar Tabs

Helloween - Falling Higher chords, tabs, tablatures, lyrics

Guitar lessons | Add/correct | Request | Top 50 tabs Artists:  A B C D E F G H I J K L M N O P Q R S T U V W X Y Z 0-9

Falling Higher Guitar Tabs – Helloween

CD, Sheet music, Poster

Do you like Falling Higher? Share with your friends now
Bass TabsBass Tabs v2Tabs
FALLING HIGHER
BY HELLOWEEN


INTRO: 
guitar 1:
E|--------------------------------------------------------------------------------|
B|--------------------------------------------------------------------------------|
G|----------------------------------5-4--------------------------5-4---5-4--------|
D|---9-9-9-9-5-5-5-7-7--9-9-9-9-5-5-----5-5-7--9-9-9-9-5-5-5-7-7-----5-----5-7----|
A|--------------------------------------------------------------------------------|
E|--------------------------------------------------------------------------------|

E|--------------------------------------------------------------------------------|
B|--------------------------------------------------------------------------------|
G|----------------------------------5-4--------------------------5-4---5-4---7----|
D|---9-9-9-9-5-5-5-7-7--9-9-9-9-5-5-----5-5-7--9-9-9-9-5-5-5-7-7-----5-----5------|
A|--------------------------------------------------------------------------------|
E|--------------------------------------------------------------------------------|

guitar 2:
E|-----------------------------------------------------------------------------------|
B|-----------------------------------------------------------------------------------|
G|---4--------4--5--------4-----5-----5----------4--------4--5--------4-----5-----5--|
D|---4--5--7--4--5--5--7--4--5--5--5--5--5--7----4--5--7--4--5--5--7--4--5--5--5--5--|
A|---2--5--7--2--3--5--7--2--5--3--5--3--5--7----2--5--7--2--3--5--7--2--5--3--5--3--|
E|------3--5--------3--5-----3-----3-----3--5-------3--5--------3--5-----3-----5-----|

E|-----------|
B|-----------|
G|------7----|
D|---5--7----|
A|---5--5----|
E|---3-------|

RIFF A:
E|-----------------------------------------------------------------------------------|
B|-----------------------------------------------------------------------------------|
G|---9-------------------------------------------7-----------------------------------|
D|---9-------------------------------------------7-----------------------------------|
A|---7-7-7-7-7-7-7-7-7-7-7-7-7-7-7-7-7-7-7-7-7-7-5-7-7-7-7-7-7-7-7-7-7-7-7-7-7-7-7-7-|
E|-----------------------------------------------------------------------------------|
      | P.M.................................... | | P.M..............................

E|-----------------------------------------------------------------------------------|
B|-----------------------------------------------------------------------------------|
G|-----------------5-------------------------------------------------7---------------|
D|-----------------5-------------------------------------------------7---------------|
A|---7-7-7-7-7-7-7-3-7-7-7-7-7-7-7-7-7-7-7-7-7-7-7-7-7-7-7-7-7-7-7-7-5-7-7-7-7-7-7-7-|
E|-----------------------------------------------------------------------------------|
    ............. | | P.M.......................................... | | P.M..........

E|----------------------------------------------------------|
B|----------------------------------------------------------|
G|---------------------------------------------------9-7----|
D|---------------------------7-9-10-10-7-7-9-9-10-10--------|
A|---7-7-7-7-7-7-7-7-7-10-10--------------------------------|
E|----------------------------------------------------------|
    ............................................... |

VERSE:
E|----------------------------------------------------|
B|----------------------------------------------------|
G|-------7---8---9---------------7---8---9---5---7----|
D|---5---7---8---9---5---7---5---7---8---9---5---7----|
A|---5---5---6---7---5---7---5---5---6---7---3---5----|
E|---3---------------3---5---3------------------------|

BRIDGE:  X 2
E|----------------------------------------------------------------------------|
B|----------------------------------------------------------------------------|
G|-----------------------------------7---------------------------------5-7----|
D|-----------------------------------7---------------------------------5-7----|
A|-----------------------------------5-7-7-7-7-7-7-7-7-7-7-7-7-7-7-7-7-3-5----|
E|---3-3-3-3-3-3-3-3-3-3-3-3-3-3-3-3------------------------------------------|
    | P.M.......................... | | P.M.......................... |

CHORUS:
E|-----------------------------------------------------------------------------------|
B|-----------------------------------------------------------------------------------|
G|---9-----------------------------------------------7-------------------------------|
D|---9-----------------------------------------------7-------------------------------|
A|---7-7-7-7-7-7-7-7-7-7-7-7-7-7-7-7-7-7-7-7-7-7-7-7-5-7-7-7-7-7-7-7-7-7-7-7-7-7-7-7-|
E|-----------------------------------------------------------------------------------|
      | P.M........................................ | | P.M..........................

E|-----------------------------------------------------------------------------------|
B|-----------------------------------------------------------------------------------|
G|-----9-7-------------------------------------------------7-------------------------|
D|-----9-7-------------------------------------------------7-------------------------|
A|---7-7-5-7-7-7-7-7-7-7-7-7-7-7-7-7-7-7-7-7-7-7-7-7-7-7-7-5-7-7-7-7-7-7-7-7-7-7-7-7-|
E|-----------------------------------------------------------------------------------|
    ..|   | P.M.......................................... | | P.M....................

E|------------------------------------------------------------------------|
B|------------------------------------------------------------------------|
G|-------------------7---7-----------------------------7---------7---7----|
D|-----------10-9-10-7-7-7-7-7-7-7-9-9-9-9-10-10-10-10---10-9-10-7-7-7----|
A|---7-7-7-7-10-9-10-5-7-5-------------------------------10-9-10-5-7-5----|
E|------------8-7--8---5----------------------------------8-7--8---5------|
    ....... |             | P.M...................... |    

RIFF A:
THEN:
E|--------------------------------|
B|--------------------------------|
G|--------------------------------|
D|--------------------7-7-10-9----|
A|---7-7-9-10-7-7-9-9-------------|
E|--------------------------------|
    | P.M............... |

VERSE:
SAME AS ABOVE

BRIDGE:
SAME AS ABOVE

CHORUS:
SAME AS ABOVE

SOLO:
E|----------------------------------12-----13-12-------12-----------------------------|
B|---------------12----13-12--15-13----15--------15-14----15-13-12--15-13-12-----13-12|
G|---12-11-12-14----12-------------------------------------------------------15-------|
D|------------------------------------------------------------------------------------|
A|------------------------------------------------------------------------------------|
E|------------------------------------------------------------------------------------|

E|------------------------------------------------------------------------------------|
B|---------12--------------------12--------------------------12-12-12-12-13-13-13-13--|
G|---14-12----14-12-11--11-12-14-----12-12-12-12-14-14-14-14--------------------------|
D|------------------------------------------------------------------------------------|
A|------------------------------------------------------------------------------------|
E|------------------------------------------------------------------------------------|

E|-----------------------------------------------------------------------------12-----|
B|---------------12-12-12-12-13-13-13-13-15-15-15-15-------12-13-15----12-13-15---12--|
G|---14-14-14-14-------------------------------------12-14----------14----------------|
D|------------------------------------------------------------------------------------|
A|------------------------------------------------------------------------------------|
E|------------------------------------------------------------------------------------|

E|---------12-14----12-13/15^-14^----|
B|---13-15-------15------------------|
G|-----------------------------------|
D|-----------------------------------|
A|-----------------------------------|
E|-----------------------------------|

SOLO AGAIN:  X 4 ( I DONT KNOW THIS ONE )
E|----------------|
B|----------------|
G|---7------------|
D|---7---5---7----|
A|---5---5---7----|
E|-------3---5----|

HARMONY:  X 2
GUITAR 1:
E|-------------------------------------------------6-6-----------------6-6---------6-| 
B|---6-6-8-8-10-10-8-8-6-6-8-8-10-10-6-6-8-8-10-10-----10-10-8-8-10-10-----8-8-8-8---|
G|-----------------------------------------------------------------------------------|
D|-----------------------------------------------------------------------------------|
A|-----------------------------------------------------------------------------------|
E|-----------------------------------------------------------------------------------|

E|---6-----------------6-6------------8----|
B|-----10-10-8-8-10-10-----8-8-6-8-10------|
G|-----------------------------------------|
D|-----------------------------------------|
A|-----------------------------------------|
E|-----------------------------------------|
GUITAR 2:
E|-----------------------------------------------------------------------------------|
B|-----------------------------------------------------------------------------------|
G|----------------------------------15----------15-----------15----------15----------|
D|---15-17-19-17-15\14-15-19--17-19----19-17-19----19--17-19----19-17-15----19--15-17|
A|-----------------------------------------------------------------------------------|
E|-----------------------------------------------------------------------------------|

E|------------|
B|------------|
G|------17----|
D|---19-------|
A|------------|
E|------------|

AGAIN A SOLO I DONT KNOW:  X 4
E|----------------------------------------------------------|
B|----------------------------------------------------------|
G|---9-------------------------------5---------7------------|
D|---9-------------------------------5---------7------------|
A|---7-7-7-7-7-7-7-7-7-7-7-7-7-7-7-7-3-3-3-3-3-5-5-5-5-5----|
E|----------------------------------------------------------|
      | P.M........................ | | P.M.. | | P.M....|

INTRO AGAIN:
GUITAR 1:
SAME AS INTRO

GUITAR 2:
E|-----------------------------------------------------------------------------------|
B|-----------------------------------------------------------------------------------|
G|-----------------------------------------------------------------------------------|
D|--------------------------------------7-----------------------------7------7-------|
A|---10-10-10-10-7-7-9-9--10-10-10-10-7---10-7-9--10-10-10-10-7-7-9-9---10-9---10-9--|
E|-----------------------------------------------------------------------------------|

E|---12------------------------|
B|------15-13-12---------------|
G|---------------14-12\11\9----|
D|-----------------------------|
A|-----------------------------|
E|-----------------------------|

BRIDGE:
SAME AS ABOVE

CHORUS:
E|-----------------------------------------------------------------------------------|
B|-----------------------------------------------------------------------------------|
G|---9-----------------------------------------------7-------------------------------|
D|---9-----------------------------------------------7-------------------------------|
A|---7-7-7-7-7-7-7-7-7-7-7-7-7-7-7-7-7-7-7-7-7-7-7-7-5-7-7-7-7-7-7-7-7-7-7-7-7-7-7-7-|
E|-----------------------------------------------------------------------------------|
      | P.M........................................ | | P.M..........................

E|-----------------------------------------------------------------------------------|
B|-----------------------------------------------------------------------------------|
G|-----9-7-------------------------------------------------7-------------------------|
D|-----9-7-------------------------------------------------7-------------------------|
A|---7-7-5-7-7-7-7-7-7-7-7-7-7-7-7-7-7-7-7-7-7-7-7-7-7-7-7-5-7-7-7-7-7-7-7-7-7-7-7-7-|
E|-----------------------------------------------------------------------------------|
   ...|   | P.M.......................................... | | P.M....................

E|-----------------------------------------------------------------------------------|
B|-----------------------------------------------------------------------------------|
G|------------------7---7-----------------------------7--------7---7-----------------|
D|-----------9-10-9-7-7-7-7-7-7-7-9-9-9-9-10-10-10-10---9-10-9-7-7-7-7-7-7-7-9-9-9-9-|
A|---7-7-7-7-9-10-9-5-7-5-------------------------------9-10-9-5-7-5-----------------|
E|-----------7--8-7---5---------------------------------7--8-7---5-------------------|
    ........|            | P.M...................... |              | P.M............

E|-------------------------------------------------------------------------------|
B|-------------------------------------------------------------------------------|
G|---------------7--------7---7-----------------------------7--------7---7--9----|
D|---10-10-10-10---9-10-9-7-7-7-7-7-7-7-9-9-9-9-10-10-10-10---9-10-9-7-7-7--9----|
A|-----------------9-10-9-5-7-5-------------------------------9-10-9-5-7-5--7----|
E|-----------------7--8-7---5---------------------------------7--8-7---5----0----|
    ............|              | P.M...................... |

NOTES:
\  SLIDE
^  BEND





Comments


Popular Helloween tabs & chords
A Little Time 1 Bass Tabs
Future World Bass Tabs
Game Is Bass Tabs
Just A Little Sign 3 Bass Tabs
Rise And Fall Bass Tabs
Where The Rain Grows 3 Bass Tabs
Forever And One Tabs
King Will Be Kings Tabs
Mrs God Tabs
A Tale That Wasnt Right Ukulele


Song lyrics



↑ Back to top | Tablatures and chords are parodies/interpretations of the original songs. You may use it for private study, scholarship, research or language learning purposes only
© 2014 AZChords.com Contact us | Privacy policy | DMCA | Add/correct tabs | Request tabs | Top 50 tabs