» » »

Heart, Magic Man Bass tabs (ver.1)

Artists:  A B C D E F G H I J K L M N O P Q R S T U V W X Y Z # 

Magic Man Bass tabs (ver.1)

Heart Tabs
 Rating:
4/5 (4 votes)
Magic Man lessons Tabs too difficult? Try these video lessons and learn fast
                Heart - Magic Man
             tuneing
                  G,D,A,E

intro
----------------------------------------------|
----------------------------------------------|
----------------------------------------------|
-3-3--3-3--3-3--3-3--3-3--3-3--3-3--3-3-------|

Verse  2X's
----------------------------------------------|
-------------------3-3--3-3--3-3--3-3--3------|
----------------------------------------------|
-3-3--3-3--3-3--3-3---------------------------|

----------------------------------------------|
----------------------------------------------|
----------------------------------------------|
-3-3--3-3--3-3--3-3---------------------------|

chorus 1 2X's
----------------------------------------------|
---3-3-5-5-3-5(s)-----------------------------|
-1--------------------------------------------|
----------------------------------------------|

----------------------------------------------|
---3-------3--5-----5---3---------------------|
-5---3-3-5------5-5---1---1--3----------------|
----------------------------------------------|

1/2 of intro
Verse
Chorus
Intro  2Xs

chorus 2  play two times
-----------------------------|
---3-3-3-5-5-3-5(s)----------|
-1------------------(0)------|
-----------------------------|

----------------------------|
---3-------3-5-----5--------|
-3---3-3-5-----5-5----------|
----------------------------|

-----8-7-5----------------------|
-----------8---9-7--------------|
-5-6---------8-----10-9---------|
--------------------------------|

------------------------------------|
-3-------3-5-----5(s)----3----------|
---3-3-5-----5-5-------1---1-3------|
------------------------------------|

Guitar 4X's
---------------------------------|
---------------------------------|
------------------------3--------|
-3-3--3-3--3-3--1-1-1-1----------|

4X's
-------------------------------|
-------------------------------|
----------------------3--------|
-3-3--3-3--3-3--3-1-3----------|

-----------------------------------------------|
----------------5---5---5-3-----------3--------|
------------------5---5-----5-3---3-5----------|
-3-3--3-3--3-3------------------5-------3-3----|

-----------------------------|
-----------------------------|
-----------------------------|
-3-3--3-3--3-3--1-1-1--------|

------------------------------------------------|
------------------------------------------------|
------------------------------------------------|
-1-1-1-1-1-1-1-1-1-1-1-1-1-1-1-1-1-1-1-1-1-1----|

chorus 1

outro
-------------------------------------------|
---3---3----3-5-3-----------3--------------|
-1---1----1-------5-3---3-5----------------|
----------------------5-------3-3----------|
            
Submit corrections

comments powered by Disqus
↑ Back to top | Heart Bass for Magic Man. Lyrics for acoustic guitar and electric guitar. Tablatures and chords are parodies/interpretations of the original songs. You may use it for private study, scholarship, research or language learning purposes only