>
 >
Alone

Alone Guitar Tabs

Heart - Alone chords, tabs, tablatures, lyrics

Guitar lessons | Add/correct | Request | Top 50 tabs Artists:  A B C D E F G H I J K L M N O P Q R S T U V W X Y Z 0-9

Alone Guitar Tabs – Heart

CD, Sheet music, Poster

Do you like Alone? Share with your friends now
Bass TabsChordsChords v2Chords v3Chords v4Chords v5Chords v6Chords v7Chords v8TabsTabs v2Tabs v3Tabs v4Tabs v5Ukulele

author comment: this is the correct tab of this song, the others are bullshit
                para sa banda kong NENE!


                                ALONE
                               by Heart

 F#/Ab  A/G#7  B9
  e|x    e|4   e|0
  b|1    b|4   b|0
  g|1    g|5   g|4
  D|1    D|4   D|4
  A|3    A|6   A|2
  E|2    E|5   E|x
 
Intro : Bbm - F# - G# - F#/Ab
        Bbm - F# - G# - A/G#7

(VERSE 1)

Bbm        F#              G#        F#/Ab          Bbm              F# - G# - A/G#7
I hear the ticking of the clock, I'm lying here the room's pitch dark

Bbm        F#               G#     F#/Ab          Bbm           F# - G# - A/G#7
I wonder where you are tonight, no answer on your telephone

        F#            C#            D#m - C#
And the night goes by so very slow
       F#               C#    D#m  C#-G#-C#...
Oh I hope that it won't end so...       Alone...



(CHORUS)

D#m    B      F#         C#            D#m
  Till now, I always got by on my own

   B            F#            C#       D#m - B
I never really cared until I met you

           F#               C#
And now it chills me to the bone

F#       B           C#
How do I get you alone

F#       B           C#
How do I get you alone



(VERSE 2)

Bbm              F#              G#        
  You don't know how long I have wanted,

    F#/Ab              Bbm              F# - G# - A/G#7
to touch your lips and hold you tight.


Bbm             F#               G#     
 You don't know how long I have waited,

    F#/Ab        Bbm             F# - G# - A/G#7
and I was gonna tell you tonight.

        F#          C#            D#m - C#
But the secret is still my own,

       F#               C#       D#m  C#-G#-C#...
And my love for you is still unknown        alone...
 
(Drums roll)



D#m - B - F# - C# - D#m - B - F# - C# -
                          ooOoohhh!..

Repeat Chorus


SOLO PART GUITAR
    D#m                        B             F#       C#        D#m             B
e|--------------------------------------13h14-9------------------------------------|
b|--14b16r14--14b16r14--14p11--14b16~~----------12-11-9~------------------------12-|
G|---------------------------------------------------------11-10-------------11----|
D|---------------------------------------------------------------13-------13-------|
A|---------------------------------------------------------------------14----------|
E|---------------------------------------------------------------------------------|

         F#         C#           B                     F#            B9            F#
e|---9/11\9-------12b14~----14--------------9---------------------9-------------9------|
b|----------12-11--------------14-12----------12--11h12p11p9h11-----11------------9----|
G|-------------------------------------10h11--------------------------13------11----11-|
D|-------------------------------------------------------------------------13----------|
A|-------------------------------------------------------------------------------------|
E|-------------------------------------------------------------------------------------|


           C#            C#   -    G#   -    C#    -     B
e|-----------------------------------------------------20b22-|
b|------14-14~~---14h16p\12-14-16-18-19b21.19b21r18p16-------|
G|---11------------------------------------------------------|
D|-----------------------------------------------------------|
A|-----------------------------------------------------------|
E|-----------------------------------------------------------|


F#       B           C# 
How do I get you alone

                        e|-16~-14p13-14--------------|
                        b|--------------14--12p11----|
F#       B           C# g|------------------------11-|
How do I get you alone  d|---------------------------|

   F#       B           C#
 alone.........

   F#       B           C#
 alone.........


outro: Bbm - F# - G# - F#/Ab - Bbm


ENJOY!!!





Comments


Popular Heart tabs & chords
Never 2 Bass Tabs
Black On Black Ii Chords
Crazy On You Chords
Dog And Butterfly Chords
Never 1 Chords
Straight On Chords
All I Want To Do Tabs
Crazy On You Tabs
Magazine Tabs
Under The Sky Tabs


Song lyrics



↑ Back to top | Tablatures and chords are parodies/interpretations of the original songs. You may use it for private study, scholarship, research or language learning purposes only
© 2014 AZChords.com Contact us | Privacy policy | DMCA | Add/correct tabs | Request tabs | Top 50 tabs