>
 >
Barracuda

Barracuda Guitar Tabs

Heart - Barracuda chords, tabs, tablatures, lyrics

Guitar lessons | Add/correct | Request | Top 50 tabs Artists:  A B C D E F G H I J K L M N O P Q R S T U V W X Y Z 0-9

Barracuda Guitar Tabs – Heart

CD, Sheet music, Poster

Do you like Barracuda? Share with your friends now
Bass TabsChordsChords v2TabsTabs v2Tabs v3Tabs v4Tabs v5Ukulele
Heart - Barracuda
Standard tuning
for one guitar.

My first tab and I didn't try to keep time or anything.
You can palm mute alot of this and it will sound good.
It goes something like this.

<>=harmonic
~=whammy
\=slide down
/=slide up
h=hammer on
p=pull off
b=bend

E|------------------------------------<5>~~-----|
B|-------------------------------<12>-<5>~~-----|
G|-------------------------------<12>-----------|
D|-2-222-222-222-222-222-222-4-5----------------|
A|-2-222-222-222-222-222-222-4-5----------------|
E|-0-000-000-000-000-000-000-2-3------------12\-|

E|-------------------------------0-----|
B|-------------------------------0-----|
G|-------------------------------0--9\-|
D|-2-222-222-222-222-222-222-4-5-5--9\-|
A|-2-222-222-222-222-222-222-4-5-------|
E|-0-000-000-000-000-000-000-2-3-------|

E|-------------------------------------------|
B|-------------------------------<12>~~~-----|
G|-------------------------------<12>~~~-----|
D|-2-222-222-222-222-222-222-4-5-------------|
A|-2-222-222-222-222-222-222-4-5-------------|
E|-0-000-000-000-000-000-000-2-3---------12\-|

E|-------------------------------0--------|
B|-------------------------------0--<12>~-|
G|-------------------------------0--<12>~-|
D|-2-222-222-222-222-222-222-4-5-5--------|
A|-2-222-222-222-222-222-222-4-5----------|
E|-0-000-000-000-000-000-000-2-3----------|

E|-------------------------------------------------------------|
B|-------------------------------------------------------------|
G|---------------------------5~-7h97---------------------------|
D|-2-222-222-222-222-222-222-5~-7h97-2-222-222-222-222-222-222-|
A|-2-222-222-222-222-222-222-3~------2-222-222-222-222-222-222-|
E|-0-000-000-000-000-000-000---------0-000-000-000-000-000-000-|

So,this ain't the end....

E|------------------------------------|
B|------------------------------------|
G|---------------------------5-7h97h9-|
D|-2-222-222-222-222-222-222-5-7h97h9-|
A|-2-222-222-222-222-222-222-3--------|
E|-0-000-000-000-000-000-000----------|

Smile like the sun...

E|--------------------------------------------------------------|
B|----------------------------------------------------------3---|
G|---------------------------5------------------------------2-2-|
D|-2-222-222-222-222-222-222-5----222------------------2-22-0-2-|
A|-2-222-222-222-222-222-222-3-2--222-7/-9/10\-9\7\5\3-2-22---0-|
E|-0-000-000-000-000-000-000----5-000-8/10/12\10\8\7\5-0-00-----|

                             You lying so low...


E|------------------------------------<5>~~~-<12>-----------------------------0-<5>~~~-|
B|-------------------------------<12>-<5>~~~----------<12>--------------------0-<5>~~~-|
G|-------------------------------<12>-------------<7>----------<12>-----------0--------|
D|-2-222-222-222-222-222-222-4-5---------------------------<7>----------<12>--5--------|
A|-2-222-222-222-222-222-222-4-5------------------------------------<7>----------------|
E|-0-000-000-000-000-000-000-2-3-------------------------------------------------------|

Barracuda...

E|---------------------------------------------------------------------------|
B|---------------------------------------------------------------------------|
G|---------------------------5-7h97h9----------------------------------------|
D|-2-222-222-222-222-222-222-5-7h97h9-2-222-222-222-222-222-222-0h20h20h20h2-|
A|-2-222-222-222-222-222-222-3--------2-222-222-222-222-222-222--------------|
E|-0-000-000-000-000-000-000----------0-000-000-000-000-000-000--------------|

Back over time...

E|------------------------------------|
B|------------------------------------|
G|---------------------------5-7h97h9-|
D|-2-222-222-222-222-222-222-5-7h97h9-|
A|-2-222-222-222-222-222-222-3--------|
E|-0-000-000-000-000-000-000----------|

No right no wrong...

E|--------------------------------------------------------------|
B|----------------------------------------------------------3---|
G|---------------------------5------------------------------2-2-|
D|-2-222-222-222-222-222-222-5----222------------------2-22-0-2-|
A|-2-222-222-222-222-222-222-3-2--222-7/-9/10\-9\7\5\3-2-22---0-|
E|-0-000-000-000-000-000-000----5-000-8/10/12\10\8\7\5-0-00-----|
-
                             And if the real thing...

E|---------------------------------------------------------------------|
B|---------------------------------------------------------------------|
G|---------------------------------------------------------------------|
D|-2-222-222-222-222-222-222-5/7-7/9-2-222-222-222-222-222-222-5/7-7/9-|
A|-2-222-222-222-222-222-222-5/7-5/7-2-222-222-222-222-222-222-5/7-5/7-|
E|-0-000-000-000-000-000-000-3/5-----0-000-000-000-000-000-000-3/5-----|

Barracuda...

E|-----------------------------------------------------|
B|-------------33332-----------------------------------|
G|-----5------2----------------------------------------|
D|--5---5---2--------2-222-222-222-222-222-222-5/7-7/9-|
A|---7---7-0-0-------2-222-222-222-222-222-222-5/7-5/7-|
E|-8------8----------0-000-000-000-000-000-000-3/5-----|

Sell me, sell you,...

E|-----------------------------------|
B|-----------------------------------|
G|-----------------------------------|
D|-2-222-222-222-222-222-222-5/7-7/9-|
A|-2-222-222-222-222-222-222-5/7-5/7-|
E|-0-000-000-000-000-000-000-3/5-----|

E|----------------------------------------------------|
B|------------3332------------------------------------|
G|----5------2----------------------------------------|
D|--5--5---2------2-222-222-222-----2-222-222-222-----|
A|---7--7-0-0-----2-222-222-222-457-2-222-222-222-457-|
E|-8-----8--------0-000-000-000-235-0-000-000-000-235-|

All that night...


E|---------14b141517----------------------------------------12b14151412----1214151717b1517b15----|
B|-15b15b12-------------141517-------121412---------14b12--------------1512------------------17b-|
G|----------------------------141516\121412------------------------------------------------------|
D|------------------------------------------12\-----------14-------------------------------------|
A|------------------------------------------------14---------------------------------------------|
E|----------------------------------------------4/12---------------------------------------------|

E|-15-----15-----15------------------|
B|---17p15--17p15--17p15---12bbb-----|
G|----------------------14b12bbb-----|
D|-----------------------------------|
A|-----------------------------------|
E|-------------------------------12\-|

E|------------------------------------------------------------------|
B|-5-----------------------------3---<12>~--------------------------|
G|-5-----------------------------2-2-<12>~--------------------------|
D|-3---222------------------2-22-0-2------2-222-222-222-222-222-222-|
A|--2--222-7/-9/10\-9\7\5\3-2-22---0------2-222-222-222-222-222-222-|
E|---5-000-8/10/12\10\8\7\5-0-00----------0-000-000-000-000-000-000-|

If the real thing...

E|-12~~~12~14-141414-----------------------------------------------------<121212>-------<12>-----|
B|-12~~~12~15---------------------777------------------777---------------<121212>-----------<12>-|
G|-12~~~14~16-------16---16~~~----777-----<12>---------777-----<12>------<121212>-<7>------------|
D|--------------------14-14~~~-<7>777-<12>----------<7>777-<12>----------------------<7>---------|
A|--------------------------------------------<7>~~~---------------<7>~~~------------------------|
E|-----------------------------------------------------------------------------------------------|

E|-12-121212-12-121212-12-151515----121212-|
B|-15-151515-14-141414-13-131313-12-121212-|
G|-------------------------------12--------|
D|-----------------------------------------| X2
A|-----------------------------------------|
E|-----------------------------------------|

E|----------------------------|
B|----------------------------|
G|----------------------------|
D|-------------------11-12-14-| X5
A|-------------------9--10-12-|
E|-0-000-000-000-000----------|





Comments


Popular Heart tabs & chords
Crazy On You 3 Bass Tabs
Little Queen Bass Tabs
Alone 3 Chords
Alone 7 Chords
Secret Chords
Under The Sky Chords
Alone 4 Tabs
Crazy On You Tabs
Dreamboat Annie 1 Tabs
All I Want To Do Ukulele


Song lyrics



↑ Back to top | Tablatures and chords are parodies/interpretations of the original songs. You may use it for private study, scholarship, research or language learning purposes only
© 2014 AZChords.com Contact us | Privacy policy | DMCA | Add/correct tabs | Request tabs | Top 50 tabs