>
 >
Someone Else Before

Someone Else Before Guitar Tabs

Hawk Nelson - Someone Else Before chords, tabs, tablatures, lyrics

Guitar lessons | Add/correct | Request | Top 50 tabs Artists:  A B C D E F G H I J K L M N O P Q R S T U V W X Y Z 0-9

Someone Else Before Guitar Tabs – Hawk Nelson

CD, Sheet music, Poster

Do you like Someone Else Before? Share with your friends now
Bass TabsBass Tabs v2ChordsTabsTabs v2Ukulele
w/ credit to Ascension
Copyright 2004
Tooth and Nail Records

Drop D Tuning

Note: The song contains 11s and 10s. There are no 1s or 0s.

Intro

E|----------------------------------------------------|
B|----------------------------------------------------|
G|----------------------------------------------------|
D|-11111111-6666-8888-4444-11111111-10101010-88-4--11-|
A|-11111111-6666-8888-4444-11111111-10101010-88-4--11-|
D|-11111111-6666-8888-4444-11111111-10101010-88-4--11-|

Verse 1

E|--------------------------------------------------|
B|--------------------------------------------------|
G|-------------66---66---66---66--------------------|
D|-11-----------------------------1111--1010--88-4--|
A|-11-----------------------------1111--1010--88-4--|
D|-11-----------------------------1111--1010--88-4--|

E|--99----99----99--9------|\
B|-9--99-9--99-9--99-------|\ \
G|--------------------|  \-|\ 2x
D|-------------------------|\  /
A|-------------------------|\ /
D|-------------------------|\

Chorus 1

E|-----------------------------------------------------------------------------|
B|-----------------------------------------------------------------------------|
G|-----------------------------------------------------------------------------|
D|-777-11--6--8--4--11--10--8--4--11-1111-6-66-8-88-4-44-11-1111-10-1010-88--4-|
A|-777-11--6--8--4--11--10--8--4--11-1111-6-66-8-88-4-44-11-1111-10-1010-88--4-|
D|-777-11--6--8--4--11--10--8--4--11-1111-6-66-8-88-4-44-11-1111-10-1010-88--4-|

Pre Verse 2

E|------------------------------------------|
B|------------------------------------------|
G|------------------------------------------|
D|-xx-11-xx-6-xx-4-xx-8-xx-11-xx-6-xx-8--44-|
A|-xx-11-xx-6-xx-4-xx-8-xx-11-xx-6-xx-8--44-|
D|-xx-11-xx-6-xx-4-xx-8-xx-11-xx-6-xx-8--44-|

Verse 2

E|----------------------------------------------------|\
B|----------------------------------------------------|\ \
G|----------------------------------------------------|\  \ (Thereís more after this,
D|-1111-11-66-6-44-4-88/66-1111-11-1010-10-88-8-7-7---|\  /   but I havenít figured
A|-1111----66---44---88/66-1111----1010----88---7-7-|-|\      it out yet...)
D|-1111----66---44---88/66-1111----1010----88---7-7---|\

Pre Chorus 2

E|--------------------------------------------------------------------------------|
B|--------------------------------------------------------------------------------|
G|--------------------------------------------------------------------------------|
D|-1111111111111111-66666666-88888888-44444444-1111111111111111-1010101010101010--|
A|-1111111111111111-66666666-88888888-44444444-1111111111111111-1010101010101010--|
D|-1111111111111111-66666666-88888888-44444444-1111111111111111-1010101010101010--|

E|----------------|
B|----------------|
G|----------------|
D|-88888888-44444-|
A|-88888888-44444-|
D|-88888888-44444-|

Chorus 2

E|------------------------|
B|------------------------|
G|---6--6--6--6--6--6--6--|
D|--6--6--6--6--6--6--6---|
A|-4--4--4--4--4--4--4----|
D|------------------------|

E|-----------------------------------------------------------|
B|-----------------------------------------------------------|
G|-----------------------------------------------------------|
D|-xxxxxx-11111111-6666-8888-4444-11111111-10101010-888-4-11-|
A|-xxxxxx-11111111-6666-8888-4444-11111111-10101010-888-4-11-|
D|-xxxxxx-11111111-6666-8888-4444-11111111-10101010-888-4-11-|

Bridge (Phone Call)

E|----------------------------------|
B|----------------------------------|
G|----------------------------------|
D|-11111111-----------4-------7777--|
A|-11111111-----------4-------7777--|
D|-11111111-----------4-------7777--|

Chorus 3

E|-----------------------------------------------------------------------------|
B|-----------------------------------------------------------------------------|
G|-----------------------------------------------------------------------------|
D|-11111111-6666-8888-4444-11111111-10101010-88-4-777-11111111-6666-8888-4444--|
A|-11111111-6666-8888-4444-11111111-10101010-88-4-777-11111111-6666-8888-4444--|
D|-11111111-6666-8888-4444-11111111-10101010-88-4-777-11111111-6666-8888-4444--|

E|------------------------|
B|------------------------|
G|------------------------|
D|-11111111-10101010-88-4-|
A|-11111111-10101010-88-4-|
D|-11111111-10101010-88-4-|

Outro

E|-------------------------------------------------------------------------|
B|-------------------------------------------------------------------------|
G|-------------------------------------------------------------------------|
D|-1111-1111111111-66-66666-88-88888-44-44444-1111-1111111111-1010-101010--|
A|-1111-1111111111-66-66666-88-88888-44-44444-1111-1111111111-1010-101010--|
D|-1111-1111111111-66-66666-88-88888-44-44444-1111-1111111111-1010-101010--|

E|---------------------------|
B|---------------------------|
G|---------------------------|
D|-1010-88-88888-44444444-11-|
A|-1010-88-88888-44444444-11-|
D|-1010-88-88888-44444444-11-|





Comments


Popular Hawk Nelson tabs & chords
From Underneath 2 Chords
The Final Toast Chords
Head On Collision Intro Tabs
Is Forever Enough 1 Tabs
One Thing I Have Left 3 Tabs
Rock N Roll The Show Tabs
Show 2 Tabs
One Thing I Have Left Ukulele
Somebody Else Ukulele
The Final Toast Ukulele


Song lyrics



↑ Back to top | Tablatures and chords are parodies/interpretations of the original songs. You may use it for private study, scholarship, research or language learning purposes only
© 2014 AZChords.com Contact us | Privacy policy | DMCA | Add/correct tabs | Request tabs | Top 50 tabs