>
 >
One Thing I Have Left 1

One Thing I Have Left 1 Guitar Tabs

Hawk Nelson - One Thing I Have Left 1 chords, tabs, tablatures, lyrics

Guitar lessons | Add/correct | Request | Top 50 tabs Artists:  A B C D E F G H I J K L M N O P Q R S T U V W X Y Z 0-9

One Thing I Have Left 1 Guitar Tabs – Hawk Nelson

CD, Sheet music, Poster

Do you like One Thing I Have Left 1? Share with your friends now
Tabs
Hawk Nelson
"The One Thing I Have Left"
Tuning Standard

Intro and Verses Guitar 1: (this riff repeats four times throughout intro)
E---------------------------------------------------------------------------------|
B---------------------------------------------------------------------------------|
G-------------------------------------------------2-2--2-2------------------------|
D-----------------------------------4-4--2-4-2-2-2---------0-2-4------------------|
A---------------------------------------------------------------------------------|
E---------------------------------------------------------------------------------|
"Will Someone please radio for help!"

Intro and Verses Guitar 2: (played under the above)
E---------------------------------------------------------------------------------|
B---------------------------------------------------------------------------------|
G-------------------------------------------------2-2--2-2-2----------------------|
D----------------------------------2-2--2-2-2-2-2-2-2--2-2-2-2-2------------------|
A----------------------------------4-4--4-4-4-2-2-0-0--0-0-0-4-4------------------|
E----------------------------------4-4--4-4-4-0-0------------4-4------------------|

Pre-Chorus:
E---------------------------------------------------------------------------|
B---------------------------------------------------------------------------|
G-2-2-2-2-4-4-4-4-6-6-6-6-4-4-4-4-2-2-2-2-4-4-4-4---------------------------|
D-2-2-2-2-4-4-4-4-6-6-6-6-4-4-4-4-2-2-2-2-4-4-4-4---------------------------|
A-0-0-0-0-2-2-2-2-4-4-4-4-2-2-2-2-0-0-0-0-2-2-2-2--Repeat intro once--------|
E---------------------------------------------------------------------------|

Chorus:
E----------------------------------------------------------------------------|
B----------------------------------------------------------------------------|
G-2-2-2-2-4-4-4-4-6-6-6-6-4-4-4-4-2-2-2-2-4-4-4-4--444-222-666-22------------|
D-2-2-2-2-4-4-4-4-6-6-6-6-4-4-4-4-2-2-2-2-4-4-4-4--444-222-666-22------------|
A-0-0-0-0-2-2-2-2-4-4-4-4-2-2-2-2-0-0-0-0-2-2-2-2--222-000-444-00------------|
E----------------------------------------------------------------------------|

Ending 1st Part:
E----------------------------------------------------------------------------|
B----------------------------------------------------------------------------|
G--------------------------6-66666-----6-66666-6-8-9-11-9-8-6----------------|
D-6-66666-----6-66666------6-66666-666-6-66666-------------------------------|
A---------666---------666--4-44444-666-4-44444-4-6-7-9--7-6-4----------------|
E----------------------------------444---------------------------------------|

Ending 2nd Part:
E-----------------------------------------------------|
B-----------------------------------------------------|
G-----------------------------------------------------|
D-6-66-66-6-6-------6-66-66-6-6-------6-8-9-11-9-8-6--|
A-6-66-66-----6-6-4-6-66-66-----6-6-4-----------------|
E-4-44-44-----------4-44-44-----------4-6-7-9--7-6-4--|





Comments


Popular Hawk Nelson tabs & chords
From Underneath Chords
Is Forever Enough Chords
One Little Miracle 2 Chords
Take Me 5 Chords
Head On Collision Intro Tabs
One Little Miracle Tabs
Right Here Tabs
Zero 1 Tabs
I Still Miss You Ukulele
Zero Ukulele


Song lyrics



↑ Back to top | Tablatures and chords are parodies/interpretations of the original songs. You may use it for private study, scholarship, research or language learning purposes only
© 2014 AZChords.com Contact us | Privacy policy | DMCA | Add/correct tabs | Request tabs | Top 50 tabs