» » »

Letters To The President Bass tabs (ver.1)

Artists:  A B C D E F G H I J K L M N O P Q R S T U V W X Y Z # 

Letters To The President Bass tabs (ver.1)

Hawk Nelson
Rating:
0/5 (0 votes)

Hard to play? Try these video lessons and learn fast.
                I'm pretty much 99% sure of this. You can play it in standard if you want to just 
play the low D# on the intro an octave higher.

Bassist: Daniel Biro
Tuning: Half-Step Down


Intro 1 (0:00) Hard to hear just follow the rhythm of the guitar.
G|---------------------------------------------------------------|
D|---------------------------------------------------------------|
A|-5-55-5-5-5~---5-55-5-5-5--5----5-55-5-5-5--5--5-55-5-5-5------|
E|----------------------------------------------------------xxxxx|
Note: I like to play an octave chord here (Also hit the higher C#)

Intro 2 (0:09) Those are tens.
G|---------------------------------------------------------------|
D|---------------------------------------------------------------|
A|-5-55-5--------5-55-5-5-------5-55-5--------10-1010-9-9-7------|
E|---------0~--0----------2-00---------0~--0----------------xxxxx|

Verse (0:19)x2
G|-------------------------------------------------------------------------|
D|-------------------44444444----------------------------------------------|
A|-55555555-77777777----------77777777-55555555-44444444-22222222-00000000-|
E|-------------------------------------------------------------------------|

Prechorus 1 (0:37) The groups of 4 notes are 8th notes.
G|--------------------------------------------|
D|-----------4444-----------------------------|
A|-5555-7777------7777-5555-4444-2222-00000000|
E|--------------------------------------------|

G|-----------------------------------|
D|-----------------------------------|
A|-5~--4~--5~------5~--4~------------|
E|-------------3~----------2~--3~--xx|

Chorus (0:56)
G|------------------------------------------------------|
D|-----------54--------------------------4444-----------|
A|-55555-555----222222---------5555-7777------24-5-7~---|
E|---------------------3333333--------------------------|

Intro 2 (1:14)

Verse (1:24) On second time through, hit last G# once and let it ring.

Prechorus 2 (1:42) Those are tens and are not spaced out to make it fit.
G|--------------------------------------------------------------------------|
D|--------------------------------------------------------------------------|
A|55555555----------------------------55555555-44444444/10101010999977777777|
E|---------00000000-22222222-00000000---------------------------------------|

G|-----------------------------------|
D|-----------------------------------|
A|-5~--4~--5~------5~--4~------------|
E|-------------3~----------2~--3~--xx|

Chorus (2:01)

Slow Bridge (2:20) Bass plays at at 2:23
G|---------|
D|---------|
A|---------|
E|-5/7\5/7-|

Faster Part of Bridge (2:34)
G|---------------------------------------------------------------------|
D|-----------------5-5-5-5-7-7-7-7-----------------5-5-5-5-7-7-7-7--754|
A|-5-5-5-5-5-5-5-5-----------------5-5-5-5-5-5-5-5-----------------5---|
E|---------------------------------------------------------------------|

Chorus 2 (2:44) Tens.
G|----------------------------------------------------------|
D|-------5~--------------------5~---------------------------|
A|-5-5-5------2-2-2------5-5-5------2-2-2-2/1010101010101010|
E|------------------3~--------------------------------------|

G|----------------------------------------------------------|
D|----------------------------------------55555555----------|
A|-5555/101099-2222------55-555-577-777-7----------24-5-7~--|
E|------------------3333------------------------------------|

Outro (3:03)
G|----------------------------------------------------------|
D|-----------------------------------------55555555---------|
A|-5555/101099-2222------55555555-77777777---------24-5-7~--|
E|------------------3333------------------------------------|

There it is I tried plz rate!
            
Hard to play? Try these video lessons and learn fast. | Correct




comments powered by Disqus
↑ Back to top | Tablatures and chords are parodies/interpretations of the original songs. You may use it for private study, scholarship, research or language learning purposes only