>
 >
Letters To The President 1

Letters To The President 1 Guitar Tabs

Hawk Nelson - Letters To The President 1 chords, tabs, tablatures, lyrics

Guitar lessons | Add/correct | Request | Top 50 tabs Artists:  A B C D E F G H I J K L M N O P Q R S T U V W X Y Z 0-9

Letters To The President 1 Guitar Tabs – Hawk Nelson

CD, Sheet music, Poster

Do you like Letters To The President 1? Share with your friends now
Bass TabsChordsChords v2TabsTabs v2Tabs v3Ukulele
intro
E---------------------------------------------------------|
B---------------------------------------------------------|
G-6-666-5-8--6-666-5-10-8/10\8--6-666-5-8-6-11-11-11-10-8-|
D-x-xxx-x-x--x-xxx-x-x--x/x-\x--x-xxx-x-x-x-x--x--x--x--x-|
A-4-444-3-6--4-444-3-8--6/8-\6--4-444-3-6-4-9--9--9--8--6-|
E---------------------------------------------------------|

E-----------|
B--XXXXXX---|
G--XXXXXX---|
F--XXXXXX---|
A--XXXXXX---|
E-----------|
  
(00:09)
E------------------------------------------------------|
B------------------------------------------------------|
G-6666--88-6666--10-88--6666--88--11111110108-XXXXXX---|
D-6666--88-6666--10-88--6666--88--xxxxxxxxxxx-XXXXXX---|
A-4444--66-4444--8--66--4444--66--9-9-9-8-8-6-XXXXXX---|
E------------------------------------------------------|



(00:18)
E---------|
B---------|
G-6-HOLD--|
D-6-HOLD--|
A-4-HOLD--|
E---------|

(00:26)
E------------------------------------------------------------------------|
B-XXXXXX-----------------------------------------------------------------|
G-XXXXXX-----------------------------------------------------------------|
D-XXXXXX-----------------------------------------------------------------|
A-XXXXXX--44/8\4/6/8\6\4--44/8\4/6/8/9\8----44/8\4/6/8\6\4----44/8\4-3-4-|
E------------------------------------------------------------------------|


(00:36)
E--------------------------------------------------------------|
B--------------------------------------------------------------|
G-6666-5-88-6666-6666-5-10-88-6666-5-8-666-11111110108--666666-|
D-xxxx-x-xx-xxxx-xxxx-x-x--xx-xxxx-x-x-xxx-x-x-x-x-x-x--666666-|
A-4444-3-66-4444-4444-3-8--66-4444-3-6-444-9-9-9-8-8-6--444444-|
E--------------------------------------------------------------|
                                            palm mute-->...... 

(clean)
(00:45)
E-------------------------------------------------|
B-------------------------------------------------|
G-6-------5-----6---------6-------5-----6-----xx--|
D-6-------6-----6--4------6-------6-----6--4--xx--|
A-4-------3-----4--4------4-------3-----4--4--xx--|
E------------------2-----------------------2--xx--|
  

CHORUS:
(00:55)
E---------------------------------------------------|\
B---------------------------------------------------| \
G-66666---------------------66-88-----5--6--8--10---|  \ 
D-66666---------88888-44444-66-88-88--x--x--x--x----|  / repeat 2 times
A-44444-444-9-8-88888-44444-44-66-88--3--4--6--8----| /
E---------------66666-22222-------66----------------|/
        ...   


(01:14)
E------------------------------------------------------|
B------------------------------------------------------|
G-6666--88-6666--10-88--6666--88--11111110108-XXXXXX---|
D-6666--88-6666--10-88--6666--88--xxxxxxxxxxx-XXXXXX---|
A-4444--66-4444--8--66--4444--66--9-9-9-8-8-6-XXXXXX---|
E------------------------------------------------------|


(01:23)
E-------------------|
B-------------------| repeat 4 time
G-------5-----------| 
D--4h6--6--1h3--6---| isnt 100% right
A--4----3--1----6---| but you can still 
E---------------4---| play along

(01:39)
E----------|
B----------|
G--5-HOLD--|
D--5-HOLD--|
A--3-HOLD--|
E----------|

(01:41)
E--------------------------------------------------------------|
B--------------------------------------------------------------|
G-6666-5-88-6666-6666-5-10-88-6666-5-8-666-11111110108--666666-|
D-xxxx-x-xx-xxxx-xxxx-x-x--xx-xxxx-x-x-xxx-x-x-x-x-x-x--666666-|
A-4444-3-66-4444-4444-3-8--66-4444-3-6-444-9-9-9-8-8-6--444444-|
E--------------------------------------------------------------|
                                            palm mute-->...... 

(clean)
(01:52)
E-------------------------------------------------|
B-------------------------------------------------|
G-6-------5-----6---------6-------5-----6-----xx--|
D-6-------6-----6--4------6-------6-----6--4--xx--|
A-4-------3-----4--4------4-------3-----4--4--xx--|
E------------------2-----------------------2--xx--|
  

CHORUS:
(01:59)
E-------------------------------------------------------|\
B-------------------------------------------------------| \
G-66666---------------------6666-8888-------5--6--8--10-|  \ 
D-66666---------88888-44444-6666-8888-8888--x--x--x--x--|  / repeat 2 times 
A-44444-444-9-8-88888-44444-4444-6666-8888--3--4--6--8--| /
E---------------66666-22222-----------6666--------------|/
        ...   

(02:18)
E-------------------------------|\             
B-------------------------------| \           
G-----6-----6-------6-------6---|  \           
D---6---6-----6---6---6---6---6-|  / repeat 3 times           
A-4-------4---------------------| /            
E---------------2-------4-------|/             


(02:31)                                          (02:40) 
E----------------------------|\                  E----------------|
B----------------------------| \                 B----------------| 
G----------------------------|  \                G--------------6-|
D-66666666-------------------|  /repeat 2 times  D--4--6--4--3--6-|
A-44444444-44444444-6666666--| /                 A--4--6--4--3--4-|
E----------22222222-4444444--|/                  E--2--4--2--1----| 
  ........ ........ .......
                                  

CHORUS:
(02:41)
E-------------------------------------------------|
B-------------------------------------------------|
G--6-6-6-6------------6-6-6-6--6666--1111111111---|
D--6-6-6-6--8-8--4-4--6-6-6-6--6666--X-X-X-X-X----|
A--4-4-4-4--8-8--4-4--4-4-4-4--4444--9-9-9-9-9----|
E-----------6-6--2-2------------------------------|
                               ....
(2:51)
E----------------------------------------------------|
B----------------------------------------------------|
G-66666-------------66666-88888--------5--6--8--10---| 
D-66666-88888-44444-66666-88888-88888--x--x--x--x----| 
A-44444-88888-44444-44444-66666-88888--3--4--6--8----|
E-------66666-22222-------------66666----------------|           

SOLO
(03:00)
E---------------------------------------------|
B---------------------------------------------|
G-6--8--10--6/8--10------6--8--10--6/8--5--6--|
D--------------------8------------------------|
A---------------------------------------------|
E---------------------------------------------|

(03:05)
E---------------------------------|
B---------------------------------|
G--66666-88888--------5--6--8--10-|
D--66666-88888-88888--X--X--X--X--|
A--44444-66666-88888--3--4--6--8--|
E--------------66666--------------|





Comments


Popular Hawk Nelson tabs & chords
Hello 2 Bass Tabs
California Chords
Crazy Love Chords
Fourteen 1 Chords
Fourteen 2 Chords
Long Ago Chords
Tis So Sweet 1 Chords
California Tabs
Through The Fire Tabs
You Have What I Need Intro 1 Tabs


Song lyrics



↑ Back to top | Tablatures and chords are parodies/interpretations of the original songs. You may use it for private study, scholarship, research or language learning purposes only
© 2014 AZChords.com Contact us | Privacy policy | DMCA | Add/correct tabs | Request tabs | Top 50 tabs