>
 >
Bring 'em Out 1

Bring 'em Out 1 Guitar Tabs

Hawk Nelson - Bring 'em Out 1 chords, tabs, tablatures, lyrics

Guitar lessons | Add/correct | Request | Top 50 tabs Artists:  A B C D E F G H I J K L M N O P Q R S T U V W X Y Z 0-9

Bring 'em Out 1 Guitar Tabs – Hawk Nelson

CD, Sheet music, Poster

Do you like Bring 'em Out 1? Share with your friends now
Bass TabsTabsTabs v2Tabs v3
Tuning: standard (E, A, D, G, B, E)

Okay, heres a Bring Em Out tab. I don't know if other ones are already on here, I didn't 
it.

I DIDN'T TAB THE STRUMMING SO FIGURE IT OUT YOURSELF!!! Sorry, but this tab will get low 
if I tab it out because so many people play it differently.


Key:
* - Palm Mute
b - Bend
() - Bend to the note in side the parenthesis
r - release
12/ - finger slide
ps - pick slide

Intro:
|----------------------------------------------------------|
|----------------------------------------------------------|
|-----------------4-----4-----4--------4-----4-----4-------|
|-4-------4-------4--2--4--5--4--2--4--4--2--4--5--4--2--4-|
|-2-------2-------2--2--2--5--2--2--4--2--2--2--5--2--2--4-|
|--------------------0-----3-----0--2-----0-----3-----0--2-|

Verse:
|--------------------------------------------------|
|--------------------------------------------------|
|----4------4-------------4------4-------6---6---6-|
|-2--4------4--2--4----2--4------4--2--4---4---4---|
|-2--2------2--2--4----2--2------2--2--------------|
|-0------------0--2----0------------0--------------|

|---------------------------------------------------------------------|
|---------------------------------------------------------------------|
|----4-4-4-4-4-------------4-4-4-4-4--------44--44--44-----44--99--44-|
|-2--4-4-4-4-4--2--4----2--4-4-4-4-4--2--4--44--44--44-----44--99--44-|
|-2--2-2-2-2-2--2--4----2--2-2-2-2-2--2--4--22--22--22-----22--77--22-|
|-0-------------0--2----0-------------0--2----------------------------|

Pre-Chorus
|--------------------------------------------|
|--------------------------------------------|
|-4-----------4----------4-----------4-------|
|-4--2--4--2--4--2--4----4--2--4--2--4--2--4-|
|-2--2--4--2--2--2--4----2--2--4--2--2--2--4-|
|----0--2--0-----0--2-------0--2--0-----0--2-|

Chorus:
|---------------------------------|
|---------------------------------|
|---------------------------------|
|----------------------4-----4----|
|----------------------2--2--2--4-|
|-------------------------0-----2-|
PM                     *  *  *  *

Verse 2:
|--------------------------------------------------|
|--------------------------------------------------|
|----4------4-------------4------4-------6---6---6-|
|-2--4------4--2--4----2--4------4--2--4---4---4---|
|-2--2------2--2--4----2--2------2--2--------------|
|-0------------0--2----0------------0--------------|

|---------------------------------------------------------------------|
|---------------------------------------------------------------------|
|----4-4-4-4-4-------------4-4-4-4-4--------44--44--44-----44--99--44-|
|-2--4-4-4-4-4--2--4----2--4-4-4-4-4--2--4--44--44--44-----44--99--44-|
|-2--2-2-2-2-2--2--4----2--2-2-2-2-2--2--4--22--22--22-----22--77--22-|
|-0-------------0--2----0-------------0--2----------------------------|

Pre Chorus 2:
|--------------------------------------------|
|--------------------------------------------|
|-4-----------4----------4-----------4-------|
|-4--2--4--2--4--2--4----4--2--4--2--4--2--4-|
|-2--2--4--2--2--2--4----2--2--4--2--2--2--4-|
|----0--2--0-----0--2-------0--2--0-----0--2-|

|--------------------------------------------------------------|
|--------------------------------------------------------------|
|-4-----------4----------4---------------------------6-6-6-6-6-|
|-4--2--4--2--4--2--4----4--2--4--2--2-2-2-2-2-2-2-2-6-6-6-6-6-|
|-2--2--4--2--2--2--4----2--2--4--2--2-2-2-2-2-2-2-2-4-4-4-4-4-|
|----0--2--0-----0--2-------0--2--0--0-0-0-0-0-0-0-0-----------|

Intermission
|---------------------------------------|
|---------------------------------------|
|-4--------------6----4---------6-------|
|-4----2----4----6----4----2----6----4--| x2
|-2----2----4----4----2----2----4----4--|
|------0----2--------------0---------2--|

Solo:
|---------------------------------------6-7-9--7---7---7---11b(12)-9-|
|--7---7---7---4b(5)-r4-2----7---7---7-----------7---7---7-----------|
|4---4---4---4-------------4---4---4---------------------------------|
|--------------------------------------------------------------------|
|--------------------------------------------------------------------|
|--------------------------------------------------------------------|

|-99-9-9-9-7-6-7-9-7-7--------------|
|-----------------------------------|
|-----------------------------------|
|-----------------------------------|
|-----------------------------------|
|-----------------------------------|

Pre-Chorus 3:
|---------------------------------------------------------------------------|
|---------------------------------------------------------------------------|
|-------------------------6---------6---------6---------6-------------------|
|-------------------------6----4----6----6----6----4----6----6-6-6-6-6-6----|
|---------------------12/-4----4----4----6----4----4----4----6-6-6-6-6-6----|
|---------------------12/------2---------4---------2---------4-4-4-4-4-4----|ps

Chorus 3:
|---------------------------------------------|
|---------------------------------------------|
|-4-----4-----4----------4-----4-----4--------|
|-4--2--4--5--4--2--4----4--2--4--5--4--2--4--| x2
|-2--2--2--5--2--2--4----2--2--2--5--2--2--4--|
|----0-----3-----0--2-------0-----3-----0--2--|





Comments


Popular Hawk Nelson tabs & chords
California Bass Tabs
Everything You Ever Wanted 2 Chords
Faithful 1 Chords
Fourteen Chords
Somebody Else Chords
Things We Go Through Chords
Bring 'em Out 2 Tabs
Sheridan Tabs
Show Intro 1 Tabs
Somebody Else Ukulele


Song lyrics



↑ Back to top | Tablatures and chords are parodies/interpretations of the original songs. You may use it for private study, scholarship, research or language learning purposes only
© 2014 AZChords.com Contact us | Privacy policy | DMCA | Add/correct tabs | Request tabs | Top 50 tabs