>
 >
Imonarch

Imonarch Guitar Tabs

Hate Eternal - Imonarch chords, tabs, tablatures, lyrics

Guitar lessons | Add/correct | Request | Top 50 tabs Artists:  A B C D E F G H I J K L M N O P Q R S T U V W X Y Z 0-9

Imonarch Guitar Tabs – Hate Eternal

CD, Sheet music, Poster

Do you like Imonarch? Share with your friends now
Tabs
Hate Eternal – I Monarch

And don’t expect 100% accuracy... 

Tune:C# Gb B E G# C#

Riff 1
|--14p0-14p0-14p0-14p0-|—15p13-15p13-15p13-15p13-|-15p13---|
|----------------------|-------------------------|---------|
|------9----9----9----9|------10----10----10----9|------8~~|
|----------------------|-------------------------|---------|
|----------------------|-------------------------|---------|
|----------------------|-------------------------|---------|

Riff 2
|----------------------------------------------------------|
|----------------------------------------------------------|
|----------------------------------------------------------|
|6-5-6-8-9-12-13-12-5-6-5-3-2-3-5-3-6~5-6-8-9-12-13-12-5---|
|---------------------------2------------------------------|
|4-3-4-6-7-10-11-10-3-4-3-1-0-1-3-1-4~3-4-6-7-10-11-10-3---|

|----------|-----------------------------------------------|
|----------|-----------------------------------------------|
|----------|-----------------------------------------------|
|6-5-3-2-2-|5~~8~~4~~7~~~~---------------------------------|
|------3-2-|-----------------------------------------------|
|4-3-1-0-0-|3~~6~~2~~5~~~~---------------------------------|

Riff 3

|----|-------------------------------------------------------------|
|----|-------------------------------------------------------------|
|----|4---6---5---7---4---6---5---7~4---6---5---7---5---7---8---11~|
|-6--|3-2-5-3-4-3-6-3-3-2-5-3-4-3-6~3-2-5-3-4-3-6-3-4-3-6-4-7-6-10~|
|----|2-1-4-2-3-2-5-2-2-1-4-2-3-2-5~2-1-4-2-3-2-5-2-3-2-5-3-6-5-9~-|
|-4--|1-0-3-1-2-1-4-1-1-0-3-1-2-1-4~1-0-3-1-2-1-4-1-2-1-4-2-5-4-8~-|
        .   .   .   .   .   .   .     .   .   .   .   .   .   .

Riff 4

|-------------------------------------------------------------|
|-------------------------------------------------------------|
|-------------------------------------------------------------|
|3-2-5-3-4-3-6-3-3-2-5-3-4-3-6~3-2-5-3-4-3-6-3-4-3-6-4-7-6-10~|
|2-1-4-2-3-2-5-2-2-1-4-2-3-2-5~2-1-4-2-3-2-5-2-3-2-5-3-6-5-9~-|
|1-0-3-1-2-1-4-1-1-0-3-1-2-1-4~1-0-3-1-2-1-4-1-2-1-4-2-5-4-8~-|
   .   .   .   .   .   .   .     .   .   .   .   .   .   .


Chorus Riff
                  ^                   ^  ^
|-----------------22-|----------------21-17-|21-17-14-|
|-----------------21-|----------------20-16-|20-16-13-|
|-----------------20-|----------------19-15-|19-15-12-|
|-3/6-5/6-5/3-5/3----|3/6-5/6-5/3-5/3-------|---------|
|---------3/1--------|--------3/1-----------|---------|
|-1/4-3/4-3/1-3/1----|1/4-3/4-3/1-3/1-------|---------|

Riff 2 2x
Chorus Riff with diferent ending.

|--21-17-14-17-14-11-14-10-13-9-|
|--20-16-13-16-13-10-13-9--12-8-|
|--19-15-12-15-12-9--12-8--11-7-|
|-------------------------------|
|-------------------------------|
|-------------------------------|

Riff 5
Guitar one
|------------------------------|-----------------------|
|------------------------------|-----------------------|
|--------------------------444-|-444333444777888777444-|
|--------------------------333-|-333222333666777666333-|
|------------------------------|-----------------------|
|-0134---4310---0134---333-----|-----------------------|

Guitar two

|-----------------------------|
|-----------------------------|
|-----------------------------|
|2----5---3---8---4---7---6-5-|
|-----------------------------|
|0----3---1---6---2---5---4-3-|

Both guitars 

|------------------------------|-----------------------|
|------------------------------|-----------------------|
|--------------------------444-|-444333444777888777444-|
|--------------------------333-|-333222333666777666333-|
|------------------------------|-----------------------|
|-0134---4310---0134---333-----|-----------------------|






|--------------------------------------|
|--------------------------------------|
|-4443334447778884448881111111111->11--|
|-3332223336667773337771010101010------|
|--------------------------------------|
|--------------------------------------|

Riff 3 again(harmonized)

|---------------------------------------------------------------|
|---------------------------------------------------------------|
|-7---9---8---10--7---9---8---10~7---9---8---10--8---10--11---14|
|-6-5-8-6-7-6-9-6-6-5-8-6-7-6-9~~6-5-8-6-7-6-9-6-7-6-9-7-10-9-13|
|-5-4-7-5-6-5-8-5-5-4-7-5-6-5-8~~5-4-7-5-6-5-8-5-6-5-8-6-9--8-12|
|-4-3-6-4-5-4-7-4-4-3-6-4-5-4-7~~4-3-6-4-5-4-7-4-5-4-7-5-8--7-11|

End 

|----------------|
|----------------|
|----------------|
|3/6-5/6-5/3-5/3-|
|--------3/1-----|
|1/4-3/4-3/1-3/1-|





Comments


Popular Hate Eternal tabs & chords
Chants In Declaration Tabs
Hell Envenom Tabs
I, Monarch Tabs
I, Monarch 1 Tabs
Lake Ablaze Tabs
Nailed To Obscurity 1 Tabs
Path To The Eternal Gods Tabs
Path To The Eternal Gods 1 Tabs
The Fire Of Resurrection Tabs
The Victorious Reign Tabs


Song lyrics



↑ Back to top | Tablatures and chords are parodies/interpretations of the original songs. You may use it for private study, scholarship, research or language learning purposes only
© 2014 AZChords.com Contact us | Privacy policy | DMCA | Add/correct tabs | Request tabs | Top 50 tabs