>
 >
I, Monarch

I, Monarch Guitar Tabs

Hate Eternal - I, Monarch chords, tabs, tablatures, lyrics

Guitar lessons | Add/correct | Request | Top 50 tabs Artists:  A B C D E F G H I J K L M N O P Q R S T U V W X Y Z 0-9

I, Monarch Guitar Tabs – Hate Eternal

CD, Sheet music, Poster

Do you like I, Monarch? Share with your friends now
TabsTabs v2
band;hate eternal
song; i,monarch
album; i,monarch
tuning from low to high c#,f#,b,e,g#,c#
this was the best that i could come up with
like always in standard so its easier to read

intro left channel he finger plays this or tapping in other words i forget how many 
times he plays this but i know the last single note is what he stops on and lets it ring
e----11-13----11-13----11-13----11-13----11-13----16-14----16-14----16-14----|
b-10-------10-------10-------10-------10-------10-------13-------13-------13-|
g----------------------------------------------------------------------------|
d----------------------------------------------------------------------------|
a----------------------------------------------------------------------------|
e----------------------------------------------------------------------------|

right channel comes in while the finger playing is still going on
e----------------------------------------------------------------------------|
b----------------------------------------------------------------------------|
g----------------------------------------------------------------------------|
d-6---5---6--8--9-12-13-12-10--5--6--5--3--2--3--5--3--6---5---6--8--9-12-13-|
a------------------------------------------2---------------------------------|
e-4---3---4--6--7-10-11-10--8--3--4--3--1--0--1--3--1--4---3---4--6--7-10-11-|

e------------------------------------------------------------------------|
b------------------------------------------------------------------------|
g------------------------------------------------------------------------|
d-12-10--5---6--5--3--2---2--6---5---6--8--9-12-13-12-10--5---6--5--3--2-|
a---------------------2---3--------------------------------------------2-|
e-10--8--3---4--3--1--0---0--4---3---4--6--7-10-11-10--8--3---4--3--1--0-|

e-------------------------------------------------------------|
b-------------------------------------------------------------|
g-------------------------------------------------------------|
d-3--5--3--6---5--6--8--9-12-13-12-10--5---8---4---7------6---|
a-------------------------------------------------------------|
e-1--3--1--4---3--4--6--7-10-11-10--8--3---6---2---5------4-0-|
                                                            .
riff 1 both guitars i think they play this 6 times
e--------------------------------------|
b--------------------------------------|
g-4-----6---7---4---4---8---9---9---11-|
d-3-4-3-5-3-6-4-3-7-3-4-7-5-8-6-8-6-10-|
a-2-3-2-4-2-5-3-2-6-2-3-6-4-7-5-7-5--9-|
e-1-2-1-3-1-4-2-1-5-1-2-5-3-6-4-6-4--8-|
    . .   .   .   .   .   .   .   .

riff 2 both guitars these are 22's 21's 20's and so on
e--------------2222222222222222--------------21212121212117171717-|
b--------------2121212121212121--------------20202020202016161616-|
g--------------2020202020202020--------------19191919191915151515-|
d-3--5--3----3------------------3--5--3----3----------------------|
a------------2-----------------------------2----------------------|
e-1--3--1--0-1------------------1--3--1--0-1----------------------|
           .                             .
e--------------212121212121171717171717-14-|
b--------------202020202020161616161616-13-|
g--------------191919191919151515151515-12-|
d-3--5--3----3-----------------------------|
a------------2-----------------------------|
e-1--3--1--0-1-----------------------------| now go back and play riff 1 2 times then 
play riff 2 again but this time when playing the last time end with these chords here below

e-21"---17"---14"---17"---14"--10"--13"--9"--|
b-20"---16"---13"---16"---13"---9"--12"--8"--|
g-19"---15"---12"---15"---12"---8"--11"--7"--|
d--------------------------------------------|
a--------------------------------------------|
e--------------------------------------------|

riff 3 both guitars there were some chords played before this that i could not figure 
out but this was after them chords riff 3 here below
e---------------------------------------------------------------------------|
b---------------------------------------------------------------------------|
g-----------------------------------444-------------------------------------|
d-----------------------------------333-------------------------------------|
a---------------------------------------------------------------------------|
e-00113344--44331100--00113344--333-------00113344--44331100--00113344--333-|
  ........  ........  .......   ...       ........  ........  ........  ...

e-----------------------------------------------------------------------|
b-----------------------------------------------------------------------|
g-444333444777888777444-----------------------------------444-----------|
d-333222333666777666333-----------------------------------333-----------|
a-----------------------------------------------------------------------|
e-----------------------00113344--44331100--00113344--333-----00113344--|
                        ........  ........  ........  ...     ........
e--------------------------------------------------------------|
b--------------------------------------------------------------|
g-------------------------4443334447778884448881111111111-11b--|
d-------------------------3332223336667773337771010101010------|
a--------------------------------------------------------------|
e-44331100--00113344--333--------------------------------------|
  ........  ........  ...

now a solo starts after all of riff 3 then after the solo go back and play riff 1 again 
to end the song thats it





Comments


Popular Hate Eternal tabs & chords
Dethroned Tabs
Dogma Condemned 1 Tabs
In Spirit (The Power Of Mana) Tabs
King Of All Kings 1 Tabs
Para Bellum Tabs
Powers That Be Tabs
The Obscure Terror Tabs
Thorns Of Acacia Tabs
Thus Salvation Tabs
Whom Gods May Destroy Tabs


Song lyrics



↑ Back to top | Tablatures and chords are parodies/interpretations of the original songs. You may use it for private study, scholarship, research or language learning purposes only
© 2014 AZChords.com Contact us | Privacy policy | DMCA | Add/correct tabs | Request tabs | Top 50 tabs