» » »

Hate Eternal, Hell Envenom Tabs (ver.2)

Artists:  A B C D E F G H I J K L M N O P Q R S T U V W X Y Z # 

Hell Envenom Tabs (ver.2)

Hate Eternal Tabs
 Rating:
4/5 (4 votes)
Hell Envenom lessons Tabs too difficult? Try these video lessons and learn fast
1
                (Intro)
band;hate eternal
song; hell envenom
album; fury and flames
tuning from low to high c#,f#,b,e,g#,c#
putting in standard so its easier to read and yes i am still working on
this f**king songs this is all i got so far


e---------------------------------------------------------------------------|
b---------------------------------------------------------------------------|
g-4----8----4----6/5-6-4----333333333333-4----8----4----6/5-6--4-----7----4-|
d-3----7----3----5/4-5-3----222222222222-3----7----3----5/4-5--3-----6----3-|
a-2----6----2----4/3-4-2----111111111111-2----6----2----4/3-4--2-----5----2-|
e-1----5----1----3/2-3-1-----------------1----5----1----3/2-3--1-----4----1-|

e-----------------------------------------------------------------------|
b-----------------------------------------------------------------------|
g-----------------------------------------------------------------------|
d-6-----10-----6----9/8-9---7---9---5----9---6----10----6----9/8--9-----|
a-----------------------------------------------------------------------|
e-4------8-----4----7/6-7---5---7---3----7---4-----8----4----7/6--7-----|
 this is where he says hell envenom after all of this is played
            
Submit corrections

comments powered by Disqus
↑ Back to top | Hate Eternal Tabs for Hell Envenom. Lyrics for acoustic guitar and electric guitar. 1 Tablatures and chords are parodies/interpretations of the original songs. You may use it for private study, scholarship, research or language learning purposes only