» » »

Hate Eternal, Hell Envenom Tabs (ver.1)

Artists:  A B C D E F G H I J K L M N O P Q R S T U V W X Y Z # 

Hell Envenom Tabs (ver.1)

Hate Eternal Tabs
 Rating:
4/5 (4 votes)
Hell Envenom lessons Tabs too difficult? Try these video lessons and learn fast
                band;hate eternal
album; fury and flames
song; hell envenom
tuning; from low to high c#,f#,b,e,g#,c#
putting in standard so its easier to read
this is the best that i could come up with for this song
main intro play this 2 times
e-------------------------------|
b-------------------------------|
g-7---6---11---10---9/8--9--8---|
d-6---5---10----9---8/7--8--7---|
a-5---4----9----8---7/6--7--6---|
e-4---3----8----7---6/5--6--5---|

e-------------------------------------------------------|
b-------------------------------------------------------|
g-------------------------------------------------------|
d-6---5---10---9/8--9--7--9--5--6---5---10---9/8--9////-|
a-------------------------------------------------------| HELL ENVENOM
e-4---3----8---7/6--7--5--7--3--4---3----8---7/6--7////-|
                       .     .

 the 17's and 18's are sixtenth notes  play this 2 times
e----------------------------------------------------------------|
b----------------------------------------------------------------|
g---------------------------------------------------------17"18"-|
d----------------------------------------------------------------|
a-44444444444444444444-222222------------------------------------|
e-22222222222222222222--------33333333222222222-0000-0000--------|
                              ................. .... ....
e-----------------------|
b-----------------------|
g-5-8888-7--5555-8888-7-|
d-4-7777-6--4444-7777-6-|
a-3-6666-5--3333-6666-5-|
e-2-5555-4--2222-5555-4-|

play this 2 times
e-------------------------|
b-------------------------|
g-4--7777--4444--7-6666-4-|
d-3--6666--3333--6-5555-3-|
a-2--5555--2222--5-4444-2-|
e-1--4444--1111--4-3333-1-|

play this 2 times
e----------------------|
b----------------------|
g------6------5------4-|
d------5------4------3-|
a------4------3------2-|
e-0000-3-0000-2-0000-1-|
  ....   ....   ....

play this 2 times remember the 17's and 18's are sixtenth notes
e-------------------------------------------------------------------|
b-------------------------------------------------------------------|
g------------------------------------------------------------17"18"-|
d-------------------------------------------------------------------|
a-444444444444444444444-22222222------------------------------------|
e-222222222222222222222----------33333333322222222-0000-0000--------|
                                 ................. .... ....
e--------------------------|
b--------------------------|
g-4--7777--4444--7-6666--4-|
d-3--6666--3333--6-5555--3-|
a-2--5555--2222--5-4444--2-|
e-1--4444--1111--4-3333--1-|

play this 2 times
e----------------------|
b----------------------|
g------6------5------4-|
d------5------4------3-|
a------4------3------2-|
e-0000-3-0000-2-0000-1-|
  ....   ....   ....

play this 4 times these are 11's 12's 10's
e--------------------------------------------------------------------| first time
b--------------------------------------------------------------------| stop here
g-111111111111-121212121212-111111111111-101010101010-999999-----7---|
d-101010101010-111111111111-101010101010--9-9-9-9-9-9-888888-----6---|
a--9-9-9-9-9-9-101010101010--9-9-9-9-9-9--8-8-8-8-8-8-777777-----5---|
e--8-8-8-8-8-8--9-9-9-9-9-9--8-8-8-8-8-8--7-7-7-7-7-7-666666-----4---|

play this 2 times remember 17's 18's are sixtenth notes
e-----------------------------------------------------------------|
b-----------------------------------------------------------------|
g----------------------------------------------------------17"18"-|
d-----------------------------------------------------------------|
a-44444444444444444444-22222222-----------------------------------|
e-22222222222222222222----------3333333322222222-0000-0000--------|
                                ................ .... ....
e----------------------------|
b----------------------------|
g--------5--------4--------5-|
d--------4--------3--------4-| end of song
a--------3--------2--------3-|
e-000000-2-000000-1-000000-2-|
            
Submit corrections

comments powered by Disqus
↑ Back to top | Hate Eternal Tabs for Hell Envenom. Lyrics for acoustic guitar and electric guitar. Tablatures and chords are parodies/interpretations of the original songs. You may use it for private study, scholarship, research or language learning purposes only