» » »

Hate Eternal, Dogma Condemned Tabs (ver.2)

Artists:  A B C D E F G H I J K L M N O P Q R S T U V W X Y Z # 

Dogma Condemned Tabs (ver.2)

Hate Eternal Tabs
 Rating:
4/5 (4 votes)
Dogma Condemned lessons Tabs too difficult? Try these video lessons and learn fast
1
                band;hate eternal
song;dogma condemned
album;conquering the throne
tuning from low to high c#,f#,b,e,g#,c#
like always in standard so its easier to read


e-------------------------------------------------------------------|
b-------------------------------------------------------------------|
g-------------------------------------------------------------------|
d-----------------------------------------------8--4--7--3---6---2--|
a-------------------------------------------------------------------|
e-3/4/3/4-3-2-66-3/4/3/4-3-2-55-2/3/2/3-2-1-44--6--2--5--1---4---0--|
          . .            . .            . .
e--------------------------------------------------------------------------|
b--------------------------------------------------------------------------|
g--------------------------------------------------------------------------|
d--------------------------------------------------------------------------|
a--------------------------------------------------------------------------|
e-3/4/3/4-3-2-66-3/4/3/4-3-2-55-2/3/2/3-2-1-444444666666777777666666444444-|
          . .            . .            . .
e---------------------------------------------------------------------------|
b---------------------------------------------------------------------------|
g---------------------------------------------------------------------------|
d--------6//-----------------------------------------------8--4--7--3--6--2-|
a---------------------------------------------------------------------------|
e-333333-4//-3/4/3/4-3-2-66-3/4/3/4-3-2-55-2/3/2/3-2-1-44--6--2--5--1--4--0-|
                     . .            . .            . .
e-----------------------------------------------------------------------|
b-----------------------------------------------------------------------|
g-----------------------------------------------------------------------|
d-----------------------------------------------------------------------|
a-----------------------------------------------------------------------|
e-3/4/3/4-3-2-66-3/4/3/4-3-2-55-2/3/2/3-2-1-44-777777999999101010101010-|
          . .            . .            . .
e------------------------|
b------------------------|
g------------------------|
d--------------------9//-|
a------------------------|
e-999999777777666666-7//-|

e---------------------------------------------------------------------------|
b---------------------------------------------------------------------------|
g---------------------------------------------------------------------------|
d-12--8--11--7----------------------------12--8--11--14---------------------|
a---------------------------5555--------------------------------------5555--|
e-10--6---9--5-222233332222------33332222-10--6---9--12--222233332222-------|

e--------------------------------------------------------------------------|
b--------------------------------------------------------------------------|
g--------------------------------------------------------------------------|
d----------8------------------------------------------------8--4--7--3---6-|
a--------------------------------------------------------------------------|
e-33332222-6--3/4/3/4-3-2-66-3/4/3/4-3-2-55-2/3/2/3-2-1-44--6--2--5--1---4-|

e--------------------------------------------------------------------------|
b--------------------------------------------------------------------------|
g--------------------------------------------------------------------------|
d-2------------------------------------------------------------------------|
a--------------------------------------------------------------------------|
e-0--3/4/3/4-3-2-66-3/4/3/4-3-2-55-2/3/2/3-2-1-44-777777999999101010101010-|

e----------------------------------------------------------------------------|
b----------------------------------------------------------------------------|
g----------------------------------------------------------------------------|
d--------------------9//-12--8--11--7------------------------------12--8--11-|
a---------------------------------------------------5555---------------------|
e-999999777777666666-7//-10--6---9--5--222233332222------33332222--10--6---9-|

e--------------------------------------------------------------------------|
b--------------------------------------------------------------------------|
g--------------------------------------------------------------------------|
d-14------------------------------12--8--11--7-----------------------------|
a------------------5555--------------------------------------5555----------|
e-12--222233332222------33332222--10--6---9--5--222233332222------33332222-|

e----------------------------------------------------------------------|
b----------------------------------------------------------------------|
g----------------------------------------------------------------------|
d-12--8--11--14------------------------------------2-----2-----1-----1-|
a-----------------------------5555----------2--------------------------|
e-10--6---9--12--222233332222------33332222-0--333---333---222---222---|
                                            .  ...   ...   ...   ...
e-------------------------------------------------------------------------|
b-------------------------------------------------------------------------|
g-------------------------------------------------------------------------|
d-----2-----2-----1-----1-----4-----4-----3-----3-----3-----3-----2-----2-|
a-------------------------------------------------------------------------|
e-333---333---222---222---555---555---444---444---444---444---333---333---|
  ...   ...   ...   ...   ...   ...   ...   ...   ...   ...   ...   ...
e--------------------------------------------------------------------------|
b--------------------------------------------------------------------------|
g--------------------------------------------------------------------------|
d-----2-----2-----1----1-----0-----0-----0-----0-----0-------------2-----2-|
a-----------------------------------------------------------4b-------------|
e-333---333---222---222---333---333---333---333---333---333----333---333---|
  ...   ...   ...   ...   ...   ...   ...   ...   ...   ...    ...   ...
e----------------------------------------------------------------------------|
b----------------------------------------------------------------------------|
g----------------------------------------------------------------------------|
d-----1-----1-----2-----2-----1-----1-----4-----4-----3-----3-----3-----3--2-|
a----------------------------------------------------------------------------|
e-222---222---333---333---222---222---555---555---444---444---444---444------|
  ...   ...   ...   ...   ...   ...   ...   ...   ...   ...   ...   ...
solo starts after this then after the solo do all these palm mutes and single notes 
again ending with the 2 as a harmonic then do this below

e-----------------|
b-----------------|
g-----------------|
d-7---6---4---3---|
a-----------------|
e-5---4---2---1---| after this do all of the begining again which you will have to 
listen to that will end the song
            
Submit corrections

comments powered by Disqus
↑ Back to top | Hate Eternal Tabs for Dogma Condemned. Lyrics for acoustic guitar and electric guitar. 1 Tablatures and chords are parodies/interpretations of the original songs. You may use it for private study, scholarship, research or language learning purposes only