» » »

Dogma Condemned Tabs (ver.1)

Artists:  A B C D E F G H I J K L M N O P Q R S T U V W X Y Z # 

Dogma Condemned Tabs (ver.1)

Hate Eternal
Rating:
0/5 (0 votes)

Hard to play? Try these video lessons and learn fast.
                Band:  Hate Eternal
Copyright (c)  Earache/Wicked World 1999
Version 1.0 - 02-01-2005
.  - palm mute           /  - slide up to
  - slide down to       ~  - vibrato
h  - hammer on           b  - Bend
p  - pull off            Suffixes for bend
t  - tap                 f  - full bend    h - half bend
ph - pinched harmonic    q  - quarter bend t - tap bend
*  - see comment         ^  - Hold bend    r release bend
x  - Stuccatto           ~  - vibrato bend
,  - slight palm mute    () - ghost note, sustained note
"  - tremolo note        <> - Trill

Tunning C* F* B E G* C*

i think this tab is around 99% correct but il let u judge that
!!they play with 2 voices i described it as left and right!!!



riff 1 LEFT
 |-----------------------------------------|
 |-----------------------------------------|
 |-----------------------------------------|
 |-----------------------------------------|
 |-----------------------------------------|
 |-3434-3-2-66---3434-3-2-55---2323-2-1-44-|
pm      . . ..        . . ..        . . ..

riff 1 end 1     end 2
 |--------------|-----------------------------|
 |--------------|-----------------------------|
 |--------------|-----------------------------|
 |--------------|-----------------------------|
 |2---1---------|-----------------------------|
 |--3---2--3--6-|-444466667777666644443333-2--|
pm                ........................


riff 1 RIGHT
 |-----------------------------------------|
 |-----------------------------------------|
 |-----------------------------------------|
 |-----------------------------------------|
 |-----------------------------------------|
 |-6767-7-6-99---6767-7-6-88---5656-5-4-77-|
pm      . . ..        . . ..        . . ..

riff 1 end 1
 |--------------|---------------------------------|
 |--------------|---------------------------------|
 |--------------|---------------------------------|
 |--------------|---------------------------------|
 |5---4---------|---------------------------------|
 |--6---5--6--9-|-7777999910101010999977776666-7--|


riff 2A LEFT
 |---------------------------------------------|
 |---------------------------------------------|
 |---------------------------------------------|
 |---------------------------------------------|
 |-5-----4-------------------5555--------------|
 |---6-5-----2222333322223333----333322223333--|
pm           ................................

riff 2B
 |---------------------------------------------|
 |---------------------------------------------|
 |---------------------------------------------|
 |---------------------------------------------|
 |-5---4-----------------555544442222-1--------|
 |---3---2---222233332222----------------------|
pm         ........................


riff 2A RIGHT
 |---------------------------------------------|
 |---------------------------------------------|
 |---------------------------------------------|
 |---------------------------------------------|
 |--5---4------------------55555---------------|
 |3---2----2222333322223333-----333322223333---|
pm         .................................

riff 2B
 |---------------------------------------------|
 |---------------------------------------------|
 |---------------------------------------------|
 |---------------------------------------------|
 |--5---5-4----------------555554444422222-1---|
 |3---3-----2--222233332222--------------------|
pm             ...........................


riff 3A  LEFT and RIGHT
 |-------------------------------------------------|
 |-------------------------------------------------|
 |-------------------------------------------------|
 |-7-----7-----6-----6-----7-----7-----6-----6-----|
 |-------------------------------------------------|
 |--555---555---444---444---555---555---444---444--|
pm  ...   ...   ...   ...   ...   ...   ...   ...

riff 3B
 |-------------------------------------------------|
 |-------------------------------------------------|
 |-------------------------------------------------|
 |-9-----9-----8-----8-----8-----8-----7-----7-----|
 |-------------------------------------------------|
 |--777---777---666---666---666---666---555---555--|

 3A    3C
 |---|---------------------------------------------|
 |---|---------------------------------------------|
 |---|---------------------------------------------|
 |---|-6-----6-----5-----5-----5----5------4~~-----|
 |---|---------------------------------------------|
 |---|--444---444---333---333---333---333----------|
pm      ...   ...   ...   ...   ...   ...

 3A    3D
 |---|---------------------------------------------|
 |---|---------------------------------------------|
 |---|---------------------------------------------|
 |---|-9-----9-----8-----8-----8----8------7~~-----|
 |---|---------------------------------------------|
 |---|--777---777---666---666---666---666----------|
pm      ...   ...   ...   ...   ...   ...

 3A    3C
 |---|----|
 |---|----|
 |---|----|
 |---|----|
 |---|----|
 |---|----|


solo backing LEFT
 |------------------------|
 |------------------------|
 |------------------------|
 |------------------------|
 |------------------------|
 |1--4--3--6--0--3--1--4--|

solo backing RIGHT
 |----------------------------------------------|
 |----------------------------------------------|
 |----------------------------------------------|
 |----------------------------------------------|
 |3------4-3------------3-----4-31/3------------|
 |--4-6------6-43/4-6----4-6---------6-4-6------|


SOLO    (he uses a inteligent pitchshifter on some parts in the solo)
        (i added the second voice aswell)
        (the second voice is the 3rd note in the mixolidian scale)
        (the second voice is under the place where he plays it)

 |--------------------------------------------------------------------|
 |--------------------------------------------------------------------|
 |13--12-13-15-15B-13-15-|-15-13-12-13-15-13h15p13p12-13-12h13p12p10--|
 |--------------------------------------------------------------------|
 |-----------------------|--------------------------------------------|
 |--------------------------------------------------------------------|
  ......with 3rd..........
 |-----------------------|
 |-----------------------|
 |17-15-17-18-18B 17-18--|
 |-----------------------|
 |-----------------------|
 |-----------------------|

 ---------------------------------------------------------|
 ---------------------------------------------------------|
 -12-13-12h13p12p10h12-|-17-15-13-15--13-13h15p13p12-13---|
 ---------------------------------------------------------|
 ----------------------|----------------------------------|
 ---------------------------------------------------------|
                       |............with 3rd............|
                        --------------------------------|
                        --------------------------------|
                        -20-18-17-18--17-17h18p17p15-17-|
                        --------------------------------|
                        --------------------------------|
                        --------------------------------|

 -16-15-18-16-20-18-21-16-|-23-21-20-21-20h21p2018h20p1816-----|
 --------------------------------------------------------------|
 --------------------------------------------------------------|
 --------------------------------------------------------------|
 --------------------------------------------------------------|
 --------------------------------------------------------------|
 .listen to get this part.|                              .....
 |20-18-21-20-16-20-15-18-|                              -20--|
 |------------------------|                              -----|
 |------------------------|                              -----|
 |------------------------|                              -----|
 |------------------------|                              -----|
 |------------------------|                              -----|


he plays more in this part but i cant get it exactly right.
16-15-16-15-13---13--------------------------------------------------------------|
---------------16---16-14-13-14-16-14-13-14-13-----------------------------------|
-----------------------------------------------15-13-12-13-15-13-12----------13~-|
--------------------------------------------------------------------15-13-15-----|
---------------------------------------------------------------------------------|
---------------------------------------------------------------------------------|
............................with 3rd............................................
20-18-20-18-16----16-------------------------------------------------------------|
---------------20---20-18-16-18-20-18-16-18-16-----------------------------------|
-----------------------------------------------18-17-15-17-18-17-15----------17--|
--------------------------------------------------------------------18-17-18-----|
---------------------------------------------------------------------------------|
---------------------------------------------------------------------------------|


since im not sure about the last part heres sumtin that might be it sortof
15-16-15-13-15-13-11-13-11-9-11-9-8-9-11-9-8-6-8-9-8-6-4-6-4-3-4-6-4-3-------4--|
-----------------------------------------------------------------------6-4-6----|
--------------------------------------------------------------------------------|
--------------------------------------------------------------------------------|
--------------------------------------------------------------------------------|
--------------------------------------------------------------------------------|

 anyway, enjoy playing this song.
            
Hard to play? Try these video lessons and learn fast. | Correct




comments powered by Disqus
↑ Back to top | Tablatures and chords are parodies/interpretations of the original songs. You may use it for private study, scholarship, research or language learning purposes only