» » »

Behold Judas Tabs (ver.2)

Artists:  A B C D E F G H I J K L M N O P Q R S T U V W X Y Z # 

Behold Judas Tabs (ver.2)

Hate Eternal
Rating:
0/5 (0 votes)

Hard to play? Try these video lessons and learn fast.
                band;hate eternal
song;behold judas
album; i,monarch
tuning from low to high c#,f#,b,e,g#,c#
thanks to the tab pro i now know the full song
like always putting in standard so its easier to read im just showing you the main riffs 
and everything you will have to listen to the song for timing and how many times you 
have to play a riff and all that good stuff

e------------------------------------------------------------------------|
b------------------------------------------------------------------------|
g------5------5-------------------------------5------5-------------------|
d------4------4-----------5-5-----------------4------4-----------5-5-----|
a------3------3------4444----4-4-----4-4------3------3------4444-----4-4-|
e-1111-2-1111-2-3333-------------3-3-----1111-2-1111-2-3333--------------|

e-------------------------------------------------------------------------|
b-------------------------------------------------------------------------|
g--------------5------5---------------------------------------------------|
d--------------4------4-----------5-5-------------7-7-------------6-6-----|
a-----4-4------3------3------4444-----4-4-----4-4-----6-6-----6-6-----5-5-|
e-3-3-----1111-2-1111-2-3333--------------3-3-------------5-5-------------|

e-------------------------------------------------------------------------|
b-------------------------------------------------------------------------|
g--------------5------5--------------------------------5------5-----------|
d--------------4------4-----------5-5------------------4------4-----------|
a-----5-5------3------3------4444-----4-4-----4-4------3------3------4444-|
e-4-4-----1111-2-1111-2-3333--------------3-3-----1111-2-1111-2-3333------|

e-------------------------------------------------------------------------|
b-------------------------------------------------------------------------|
g----------------------5------5-------------------------------------------|
d-5-5------------------4------4-----------5-5-------------7-7-------------|
a-----4-4-----4-4------3------3------4444-----4-4-----4-4-----6-6-----6-6-|
e---------3-3-----1111-2-1111-2-3333--------------3-3-------------5-5-----|

e---------------------------------------------------------------------------|
b---------------------------------------------------------------------------|
g----------------------5------5--4------------------------------------------|
d-6-6------------------4------4--3----33-22/151515---------------2---2---2--|
a-----5-5-----5-5------3------3--2--3--------------161615151414--1---1---1--|
e---------4-4-----1111-2-1111-2--1--1----------------------------0---0---0--|
                                    .
e---------------------------------------------------------------------------|
b---------------------------------------------------------------------------|
g---------------------------------------------9-------3334444333444---------|
d-2---22-11/141414--------------2---2---1/7-6---8-----2223333222333--33-22/-|
a-1-----------------------------1---1-------------7---1112222111222---------|
e-0----------------151514141313-0---0---------------6-----------------------|

e--------------------------------------------------------------------------|
b--------------------------------------------------------------------------|
g--------------------------------------------------------------------------|
d-151515--------------2---2---2---2---2--22-11/141414--------------2---2---|
a--------161615151414-1---1---1---1---1----------------------------1---1---|
e---------------------0---0---0---0---0---------------151514141313-0---0---|

e---------------------------------------------------------------------------|
b---------------------------------------------------------------------------|
g-------9-------3--3--3--4---4--4-4--3--3--3--4--4--4-----------------------|
d-1/7-6---8-----2--2--2--3---3--3-3--2--2--2--3--3--3---33-22/151515--------|
a-----------7---1--1--1--2---2--2-2--1--1--1--2--2--2----------------161615-|
e-------------6-------------------------------------------------------------|

e----------------------------------------------------------------------------|
b----------------------------------------------------------------------------|
g--------------------------------------------------------------------9-------|
d--------2---2---2---2---2---22-11/141414--------------2---2---1/7-6---8-----|
a-151414-1---1---1---1---1-----------------------------1---1-------------7---|
e--------0---0---0---0---0----------------151514141313-0---0---------------6-|

e------------------------------------------------------------------------|
b------------------------------------------------------------------------|
g-3--3--3--4--4--4--4--3--3--3--4--4--4--4/9/4/9-4-4-4/9/4/9-4-4-4/9/4/9-|
d-2--2--2--3--3--3--3--2--2--2--3--3--3--3/8/3/8-3-3-3/8/3/8-3-3-3/8/3/8-|
a-1--1--1--2--2--2--2--1--1--1--2--2--2--2/7/2/7-2-2-2/7/2/7-2-2-2/7/2/7-|
e----------------------------------------1/6/1/6-1-1-1/6/1/6-1-1-1/6/1/6-|
                                                   . .       . .
e--------------------------------------------------------------------------|
b--------------------------------------------------------------------------|
g-4-4----------------------------------------------------------------------|
d-3-3--3--5--3--4--111-------------111-------------111---------------------|
a-2-2--2--4--2--3------222-------------222-------------222-----------------|
e-1-1--1--3--1--2----------333-111---------333-111---------333-111-333-111-|
       .  .  .
e-----------------------------------------------------------------------|
b-----------------------------------------------------------------------|
g------------11---11---11---11--------------11---11-------------11/15---|
d-----111----10---10---10---10-------2-2-2--10---10-------2-2-2-10/14---|
a---------3---9----9----9----9-------2-2-2---9----9-------2-2-2--9/13---|
e-444-----1---8----8----8----8---000-0-0-0---8----8---000-0-0-0--8/12---|
          .                      ...                  ...
e----------------------------------------------------------------------|
b----------------------------------------------------------------------|
g-11---11---11---11-------------11---11-------------11---10---9---11---|
d-10---10---10---10-------2-2-2-10---10-------2-2-2-10----9---8---10---|
a--9----9----9----9-------2-2-2--9----9-------2-2-2--9----8---7----9---|
e--8----8----8----8---000-0-0-0--8----8---000-0-0-0--8----7---6----8---|
                      ...                 ...
e---------------------------------------------------------------------------|
b---------------------------------------------------------------------------|
g--------11-----------11----------12---14---15---11----------11----------11-|
d--------10-----------10----------11---13---14---10----------10----------10-|
a---------9------------9----------10---12---13----9-----------9-----------9-|
e-222222--8---222222---8---222222--9---11---12----8---222222--8---222222--8-|
  ......      ......       ......                     ......      ......
e------------------------------------------------------------------|
b------------------------------------------------------------------|
g--------11/15---11----------11----------11----------11---10---9---|
d--------10/14---10----------10----------10----------10----9---8---|
a---------9/13----9-----------9-----------9-----------9----8---7---|
e-222222--8/12----8---222222--8---222222--8---222222--8----7---6---|
  ......              ......      ......      ......
                      SOLO MOTHERf**kERS
e-17-------18-------15-------16-------14-------15-------14-13-12----------|
b----16-------17-------14-------15-------13-------14-------------14-13----|
g-------15-------16-------13-------14-------12-------13----------------14-|
d-------------------------------------------------------------------------|
a-------------------------------------------------------------------------|
e-------------------------------------------------------------------------|

e-17-------18-------15-------16-------20-------21-------19-------20b-|
b----16-------17-------14-------15-------19-------20-------18--------|
g-------15-------16-------13-------14-------18-------19-------17-----|
d--------------------------------------------------------------------|
a--------------------------------------------------------------------|
e--------------------------------------------------------------------|

e-17-------18-------15-------16-------14-------15-------14-13-12-----------|
b----16-------17-------14-------15-------13-------14-------------14-13-----|
g-------15-------16-------13-------14-------12-------13----------------14b-|
d--------------------------------------------------------------------------|
a--------------------------------------------------------------------------|
e--------------------------------------------------------------------------|

thats pretty much it like i said you will have to listen to this song for timing how 
many times a riff is played and all that other good stuff so please enjoy this tab
            
Hard to play? Try these video lessons and learn fast. | Correct




comments powered by Disqus
↑ Back to top | Tablatures and chords are parodies/interpretations of the original songs. You may use it for private study, scholarship, research or language learning purposes only