>
 >
Behold Judas

Behold Judas Guitar Tabs

Hate Eternal - Behold Judas chords, tabs, tablatures, lyrics

Guitar lessons | Add/correct | Request | Top 50 tabs Artists:  A B C D E F G H I J K L M N O P Q R S T U V W X Y Z 0-9

Behold Judas Guitar Tabs – Hate Eternal

CD, Sheet music, Poster

Do you like Behold Judas? Share with your friends now
TabsTabs v2
Band:  Hate Eternal 

Copyright (c)  Earache records 2005 
Version 1.0 - (21.10.05 




.  - palm mute           /  - slide up to 
\  - slide down to       ~  - vibrato 
h  - hammer on           b  - Bend 
p  - pull off            Suffixes for bend 
t  - tap                 f  - full bend    h - half bend 
ph - pinched harmonic    q  - quarter bend t - tap bend 
*  - see comment         ^  - Hold bend    r release bend 
x  - Stuccatto           ~  - vibrato bend 
,  - slight palm mute    () - ghost note, sustained note 
"  - tremolo note        <> - Trill 

Tune to c# 

Riff 1 
|------------------------------------| 
|------------------------------------| 
|-----5------6--------------44~------| 
|-----4------5--55-44-33-44-33~-44~--| 
|-----3------4--44-33-22-33-22~-33~--| 
|-222-2--222-3--33-22-11-22-----22~--| 


|------------------------------------| 
|------------------------------------| 
|-----5------6--------------44~------| 
|-----4------5--55-44-33-44-33~-44~--| 
|-----3------4--44-33-22-33-22~-33~--| 
|-222-2--222-3--33-22-11-22-----22~--| 


|-------------------------------------------------------| 
|-------------------------------------------------------| 
|-----5------6--------------44~------------------44~----| 
|-----4------5--55-44-33-44-33~-44~--55-44-33-44-33~-44~| 
|-----3------4--44-33-22-33-22~-33~--44-33-22-33-22~-33~| 
|-222-2--222-3--33-22-11-22-----22~--33-22-11-22-----22~| 


Fill 
|---------------| 
|---------------| 
|----5-----6--4-| 
|----4-----5--3-| 
|----3-----4--2-| 
|222-2-222-3--1-| 


Pre verse gUitar 1 
|----------------------------------------------------------------------------| 
|-----------------------------------------------------------------------44---| 
|-------------------------9-3--9-3-4----------------------------------------^| 
|3322/151515--------------8-2--8-2-3-2211/141414-------------------2211----44| 
|------------161615151414-7-1--7-1-2-----------------------------------------| 
|-------------------------6-0--6-0-1-------------151514141313-2211-----------| 
|                         . .  . . . 
| 
| 
|Guitar 2 
|----------------------------------------------------------------------------| 
|----------------------------------------------------------------------------| 
|-------------------------9-3--9-3-4-----------------------------------------| 
|-------------------------8-2--8-2-3-----------------------------------------| 
|-------------------------7-1--7-1-2-----------------------------------------| 
|-------------------------6-0--6-0-1-----------------------------------------| 
                          . .  . . . 

Riff 2 Verse 
|----------------------------------------------------------------------------| 
|-----------------------------------------------------------------------44---| 
|-------------------------9-3--9-3-4----------------------------------------^| 
|3322/151515--------------8-2--8-2-3-2211/141414-------------------2211----44| 
|------------161615151414-7-1--7-1-2-----------------------------------------| 
|-------------------------6-0--6-0-1-------------151514141313-2211-----------| 
|                         . .  . . . 


Pre chorus fill 
|-----------------------------------------------------------| 
|-----------------------------------------------------------| 
|--------------------------------------------------------10-| 
|-------------------------------6---5---4---3---4--4--4--9--| 
|-9---8---7--7-7-7-7-7-7-6-5----5---4---3---2---3--3--3--8--| 
|---2---1--------------------8--4-0-3-0-2-0-1-0-2--2--2--7--| 
                                                .  .  . 

chorus 1 
|-----------------------------------------------------------------------| 
|-----------------------------------------------------------------------| 
|---------------------------------------------------------------------10| 
|------------------------------------------6---6---4---3---4---4---4--9-| 
|-8877------7766------8877-----------5588--5---5---3---2---3---3---3--8-| 
|------3322------2211------3322-2211-------4-0-3-0-2-0-1-0-2-0-2-0-2--7-| 


|--------------------------------------| 
|--------------------------------------| 
|--------------------------------------| 
|--------------------------------------| 
|-8877------7766------8877-----------5-| 
|------3322------2211------3322-2211---| 


Riff 2 Verse 
|----------------------------------------------------------------------------| 
|-----------------------------------------------------------------------44---| 
|-------------------------9-3--9-3-4----------------------------------------^| 
|3322/151515--------------8-2--8-2-3-2211/141414-------------------2211----44| 
|------------161615151414-7-1--7-1-2-----------------------------------------| 
|-------------------------6-0--6-0-1-------------151514141313-2211-----------| 


Pre chorus fill 
|-----------------------------------------------------------| 
|-----------------------------------------------------------| 
|--------------------------------------------------------10-| 
|-------------------------------6---5---4---3---4--4--4--9--| 
|-9---8---7--7-7-7-7-7-7-6-5----5---4---3---2---3--3--3--8--| 
|---2---1--------------------8--4-0-3-0-2-0-1-0-2--2--2--7--| 
                                                .  .  . 

Chorus 2 
|-----------------------------------------------------------------------| 
|-----------------------------------------------------------------------| 
|---------------------------------------------------------------------10| 
|------------------------------------------6---6---4---3---4---4---4--9-| 
|-8877------7766------8877-----------5588--5---5---3---2---3---3---3--8-| 
|------3322------2211------3322-2211-------4-0-3-0-2-0-1-0-2-0-2-0-2--7-| 


|---------------------------------------------------------------------| 
|---------------------------------------------------------------------| 
|-------------------------------------------------------------------10| 
|------------------------------------------6---6---4---3---4--4--4--9-| 
|-8877------7766------8877-----------5588--5---5---3---2---3--3--3--8-| 
|------3322------2211------3322-2211-------4-0-3-0-2-0-1-0-2--2--2--7-| 
                                                           .  .  .  

|-----------------------------------------------------------------------| 
|-----------------------------------------------------------------------| 
|---------------------------------------------------------------------10| 
|------------------------------------------6---6---4---3---4---4---4--9-| 
|-8877------7766------8877-----------5588--5---5---3---2---3---3---3--8-| 
|------3322------2211------3322-2211-------4-0-3-0-2-0-1-0-2-0-2-0-2--7-| 


|-----------------------------------------| 
|-----------------------------------------| 
|-----------------------------------------| 
|-----------------------------------------| 
|-8877------7766------8877-----------5588-| 
|------3322------2211------3322-2211------| 


Riff 3 Guitar 1 
|--------------------------------------------------| 
|--------------------------------------------------| 
|-5---5---5---5-----------5---5-----------5-8-7-7/-| 
|-4---4---4---4-5-3-5-5-6-4---4-5-3-4-5-6-4-7-6-6/-| 
|-3---3---3---3-4-2-4-4-5-3---3-4-2-3-4-5-3-6-5-5/-| 
|---------------3-1-2-3-4-------3-1-2-3-4----------| 
|               . . . . .       . . . . . 
| 
|I know this might sound wrong, but try to drive all the volume over to 
|each side at a time, and you`ll here this is what each of them play,or 
|something close to it atleast. 
| 
| 
Guitar 2                                          
|----------------------------------------------------| 
|----------------------------------------------------| 
|-------------------------------------5-9--9-9-8-8---| 
|--4---4---4----4-5-7-8-9-10-9-\4---4----------------| 
|-------------------------------------3-7--7-7-6-6---| 
|----------------------------------------------------| 


Riff 4 Guitar 1 
|---------------------------------------------------------| 
|---------------------------------------------------------| 
|-5-------5------5--------5--5/--5-------5-------5-8-7-7/-| 
|-4-------4------4--------4--4/--4-------4-------4-7-6-6/-| 
|-3-------3------3--------3--3/--3-------3-------3-6-5-5/-| 
|---0-000---0-000---0-000--------- 0-000---0-000----------| 
|   . ...   . ...   . ...          . ...   . ... 
| 
| 
|Guitar 2 ( very hard to hear) 
|---------------------------------------------------------| 
|---------------------------------------------------------| 
|------------------------------------------------5-8-7-7--| 
|-4444-5/-4444-5/-4444-5/-445599-4444-5/-4444-5/----------| 
|------------------------------------------------3-6-5-5--| 
|---------------------------------------------------------| 

Riff 5 under solo 
|-----------------------------------------------| 
|-----------------------------------------------| 
|-----------------------------------------------| 
|-3-----4-----4-----5-----6\5-----5-5\4-----4\3-| 
|-----------------------------------------------| 
|---1-1---2-2---2-2---3-3-----243-------1-2-----| 
    . .   . .   . .   . .     ...       . . 

|---------------------------------------------| 
|---------------------------------------------| 
|---------------------------------------------| 
|-3-----4-----4-----5-----6\5-----5-4-8\7-----| 
|---------------------------------------------| 
|---1-1---2-2---2-2---3-3-----243---------876-| 
    . .   . .   . .   . .     ...         ... 

                                            |          solo break             | 
|-----------------------------------------------------------------------------| 
|-----------------------------------------------------------------------------| 
|-------------------------------------------(/9)-8--7-7--6-7-9-8\7/8--8-9-12~-| 
|-3-----4-----4-----5-----6\5-----5-5\4-----(/8)-7--6-6--5-6-8-7\6/7--7-8-11~-| 
|-------------------------------------------(/7)-6--5-5--4-5-7-6\5/6--6-7-10~-| 
|---1-1---2-2---2-2---3-3-----243-------1-2-----------------------------------| 
    . .   . .   . .   . .     ...       . . 

Solo continous (No palm mute) 
|-----------------------------------------------| 
|-----------------------------------------------| 
|-----------------------------------------------| 
|-3-----4-----4-----5-----6\5-----5-5\4-----4\3-| 
|-----------------------------------------------| 
|---1-1---2-2---2-2---3-3-----243-------1-2-----| 


|---------------------------------------------| 
|---------------------------------------------| 
|---------------------------------------------| 
|-3-----4-----4-----5-----6\5-----5-4-8\7-----| 
|---------------------------------------------| 
|---1-1---2-2---2-2---3-3-----243---------876-| 


                                            |          solo stops             | 
|-----------------------------------------------------------------------------| 
|-----------------------------------------------------------------------------| 
|-------------------------------------------(/9)-8--7-7--6-7-9-8\7/8--8-9-12~-| 
|-3-----4-----4-----5-----6\5-----5-5\4-----(/8)-7--6-6--5-6-8-7\6/7--7-8-11~-| 
|-------------------------------------------(/7)-6--5-5--4-5-7-6\5/6--6-7-10~-| 
|---1-1---2-2---2-2---3-3-----222-------1-2-----------------------------------| 



SOLO by k13m 

|17-14-13-18-12-13--------------------------------------------------------| 
|------------------19-16-15-20-14-15-18-15-14-19-13-14--18-17-------------| 
|------------------------------------------------------------18-17-15-14--| 
|-------------------------------------------------------------------------| 
|-------------------------------------------------------------------------| 
|-------------------------------------------------------------------------| 

|17-14-13-18-12-13-------------------20-17-16-21-15-16-20-17-16-20--| 
|------------------19-16-14-20-14-15--------------------------------| 
|-------------------------------------------------------------------| 
|-------------------------------------------------------------------| 
|-------------------------------------------------------------------| 
|-------------------------------------------------------------------| 

|17-14-13-18-12-13--------------------------------------------------------| 
|------------------19-16-15-20-14-15-18-15-14-19-13-14--18-17-------------| 
|------------------------------------------------------------18-17-15-14--| 
|-------------------------------------------------------------------------| 
|-------------------------------------------------------------------------| 
|-------------------------------------------------------------------------| 
( solo break) 
harmony of above, play this the 2nd time along with above 
note, if u have a pitchshifter, set it for 4ths 
and ull get the sound tabbed below (thats what rutan did) 

Solo contionous 
|21-18-17-22-16-17--------------------------------------------------------| 
|------------------23-20-19-24-18-19-22-19-18-23-17-18--22-21-------------| 
|------------------------------------------------------------22-21-19-18--| 
|-------------------------------------------------------------------------| 
|-------------------------------------------------------------------------| 
|-------------------------------------------------------------------------| 

|21-18-17-22-16-17-------------------24-21-20-25-19-20-24-21-20-24--| 
|------------------23-20-19-24-18-19--------------------------------| 
|-------------------------------------------------------------------| 
|-------------------------------------------------------------------| 
|-------------------------------------------------------------------| 
|-------------------------------------------------------------------| 

|21-18-17-22-16-17--------------------------------------------------------| 
|------------------23-20-19-24-18-19-22-19-18-23-17-18--22-21-------------| 
|------------------------------------------------------------22-21-19-18--| 
|-------------------------------------------------------------------------| 
|-------------------------------------------------------------------------| 
|-------------------------------------------------------------------------| 



Riff 4 Guitar 1 
|---------------------------------------------------------| 
|---------------------------------------------------------| 
|-5-------5------5--------5--5/--5-------5-------5-8-7-7/-| 
|-4-------4------4--------4--4/--4-------4-------4-7-6-6/-| 
|-3-------3------3--------3--3/--3-------3-------3-6-5-5/-| 
|---0-000---0-000---0-000--------- 0-000---0-000----------| 
|   . ...   . ...   . ...          . ...   . ... 
| 
| 
|Guitar 2 ( very hard to hear) 
|---------------------------------------------------------| 
|---------------------------------------------------------| 
|------------------------------------------------5-8-7-7--| 
|-4444-5/-4444-5/-4444-5/-445599-4444-5/-4444-5/----------| 
|------------------------------------------------3-6-5-5--| 
|---------------------------------------------------------| 

Fill 
|------------------------------| 
|------------------------------| 
|---------------------------10-| 
|-6---5---4---3---4--4--4---9--| 
|-5---4---3---2---3--3--3---8--| 
|-4-0-3-0-2-0-1-0-2--2--2---7--| 
                  .  .  . 

Chorus 3 

|-----------------------------------------------------------------------| 
|-----------------------------------------------------------------------| 
|---------------------------------------------------------------------10| 
|------------------------------------------6---6---4---3---4---4---4--9-| 
|-8877------7766------8877-----------5588--5---5---3---2---3---3---3--8-| 
|------3322------2211------3322-2211-------4-0-3-0-2-0-1-0-2-0-2-0-2--7-| 


|---------------------------------------------------------------------| 
|---------------------------------------------------------------------| 
|-------------------------------------------------------------------10| 
|------------------------------------------6---6---4---3---4--4--4--9-| 
|-8877------7766------8877-----------5588--5---5---3---2---3--3--3--8-| 
|------3322------2211------3322-2211-------4-0-3-0-2-0-1-0-2--2--2--7-| 
                                                           .  .  .  

|-----------------------------------------------------------------------| 
|-----------------------------------------------------------------------| 
|---------------------------------------------------------------------10| 
|------------------------------------------6---6---4---3---4---4---4--9-| 
|-8877------7766------8877-----------5588--5---5---3---2---3---3---3--8-| 
|------3322------2211------3322-2211-------4-0-3-0-2-0-1-0-2-0-2-0-2--7-| 


|-----------------------------------------| 
|-----------------------------------------| 
|-----------------------------------------| 
|-----------------------------------------| 
|-8877------7766------8877-----------5588-| 
|------3322------2211------3322-2211------| 

Ending 
|--------------------------------| 
|--------------------------------| 
|--------------------------------| 
|------------------------------6-| 
|-9---8---7--7-7-7-7-7-7-6-5---5-| 
|---2---1--------------------8-4-| 

End. Thanks to kiem for the solo and Milo for help with verse and intro!





Comments


Popular Hate Eternal tabs & chords
Dethroned Tabs
Faceless One Tabs
Hell Envenom Intro Tabs
Para Bellum Tabs
Path To The Eternal Gods 1 Tabs
Powers That Be Tabs
Sons Of Darkness Tabs
The Obscure Terror Intro Tabs
The Plague Of Humanity Tabs
Thus Salvation Tabs


Song lyrics



↑ Back to top | Tablatures and chords are parodies/interpretations of the original songs. You may use it for private study, scholarship, research or language learning purposes only
© 2014 AZChords.com Contact us | Privacy policy | DMCA | Add/correct tabs | Request tabs | Top 50 tabs