» » »

Hatebreed, Puritan Tabs (ver.2)

Artists:  A B C D E F G H I J K L M N O P Q R S T U V W X Y Z # 

Puritan Tabs (ver.2)

Hatebreed Tabs
Rating:
0/5 (0 votes)
Puritan lessons Tabs too difficult? Try these video lessons and learn fast
                hatebreed
puritan
satisfaction is the death of desire
   "Bastard cries..."                   "In this world full of fear..."
1||-----------------|-----------------||-----------------|------------------||
2||-----------------|-----------------||-----------------|------------------||
3||-----------------|-----------------||-----------------|------------------||
4||-----------------|-----------------||-----------------|------------------||
5||-3-2---5---5---3-|-2---------------||-3-2---5---5---3-|-2----------------||
6||-1-0-0-3-0-3-0-1-|-0---------------||-1-0-0-3-0-3-0-1-|-0-0-00000-0-0000-||

   Bass and guitar lick                 "Salvation..."
1||-----------------|-----------------||-----------------|-----------------|
2||-----------------|-----------------||-----------------|-----------------|
3||-----------------|-----------------||-----------------|-----------------|
4||-----------------|-----------------||-----------------|-----------------|
5||-----------------|-------------3---||-4/5-2---2---2-2-|-2---2---2---2-2-|
6||-3-1-0-3-1-0-3-1-|-0-3-1-0-3-4-----||-2/3-0---0---0-0-|-0---0---0---0-0-|

                                        "I will not bow down..."
1||-----------------|-----------------||-----------------|------------------|
2||-----------------|-----------------||-----------------|------------------|
3||-----------------|-----------------||-----------------|------------------|
4||-----------------|-----------------||-----------------|------------------|
5||-4/5-2---2---2-2-|-2---2-----5-----||-6-------3-------|---------2--------|
6||-2/3-0---0---0-0-|-0---0---2-3-----||----3--4----4--3-|-1--3--4----4--3--|


1||------------------|-----------------||
2||------------------|-----------------||
3||------------------|-----------------||
4||------------------|-----------------||
5||------------------|-----------------||
6||-0---00000---0000-|-0---00000---0---
            

comments powered by Disqus
↑ Back to top | Hatebreed Tabs for Puritan. Lyrics for acoustic guitar and electric guitar. Tablatures and chords are parodies/interpretations of the original songs. You may use it for private study, scholarship, research or language learning purposes only