» » »

Hatebreed, Puritan Tabs (ver.3)

Artists:  A B C D E F G H I J K L M N O P Q R S T U V W X Y Z # 

Puritan Tabs (ver.3)

Hatebreed Tabs
Rating:
0/5 (0 votes)
Puritan lessons Tabs too difficult? Try these video lessons and learn fast
                Listen to cd for rhythm and timing

Tuning: C G C F A D (drop D, whole step down)

--------------------|---------------------------------------------------------
--------------------|---------------------------------------------------------
--------------------|---------------------------------------------------------
--------------------|---------------------------------------------------------
-1p0-0-3-3-1-0------|-1p0-0-3-3-1-0-------------------------------------------
-1p0-0-3-3-1-0------|-1p0-0-3-3-1-0-------------------------------------------
               (x3)               ^ hold out last note                        

-1p0-0-3-3-1-0----------------------------------------------------------------
-1p0-0-3-3-1-0-0-000-0-0------------------------------------------------------
                         (x4) holding out last note                           

---------------------------------1--------------------------------------------
-3-2-1--3-2-1--3-2-1--3-2-1--3-2-1--------------------------------------------
-3-2-1--3-2-1--3-2-1--3-2-1--3-2----------------------------------------------
                                   (x8) 2nd guitar comes in on fifth time     

---------------|--------------------------------------------------------------
---------------|--------------------------------------------------------------
---------------|--------------------------------------------------------------
---------------|--------------------------------------------------------------
-2-0-0-000-0-0-|-0-0-2-0-0-000-0-0-3------------------------------------------
-2-0-0-000-0-0-|-0-0-2-0-0-000-0-0-3------------------------------------------
                                    (x4)                                      

-6-----3-----------2----------------------------------------------------------
---3-4---4-3-1-3-4---4-3-0-0000-0000-0000-000---------------------------------
                                              (x2)                            

---------------------------------1--------------------------------------------
-3-2-1--3-2-1--3-2-1--3-2-1--3-2-1--------------------------------------------
-3-2-1--3-2-1--3-2-1--3-2-1--3-2----------------------------------------------
                                  (x4)                                        

---------------|--------------------------------------------------------------
---------------|--------------------------------------------------------------
---------------|--------------------------------------------------------------
---------------|--------------------------------------------------------------
-2-0-0-000-0-0-|-0-0-2-0-0-000-0-0-3------------------------------------------
-2-0-0-000-0-0-|-0-0-2-0-0-000-0-0-3------------------------------------------
                                    (x4)                                      

-6-----3-----------2-----0----------------------------------------------------
---3-4---4-3-1-3-4---4-3-0----------------------------------------------------
 i see now mankind was not mean to last...last...last...last
            

comments powered by Disqus
↑ Back to top | Hatebreed Tabs for Puritan. Lyrics for acoustic guitar and electric guitar. Tablatures and chords are parodies/interpretations of the original songs. You may use it for private study, scholarship, research or language learning purposes only