» » »

Hatebreed, Burn The Lies Tabs (ver.2)

Artists:  A B C D E F G H I J K L M N O P Q R S T U V W X Y Z # 

Burn The Lies Tabs (ver.2)

Hatebreed Tabs
Rating:
0/5 (0 votes)
Burn The Lies lessons Tabs too difficult? Try these video lessons and learn fast
                Legend
------

 h  = hammer-on
 p  = pull-off
 /  = slide up
 \  = slide down
 ~  = vibrato
 x\ = pick slide


Tune down 2 whole steps (C,F,Bb,Eb,G,C)


   "They're so persuasive..."
1||-----------------|-----------------||
2||-----------------|-----------------||
3||-----------------|-----------------||
4||-----------------|-----------------||
5||-3-2---2-5/6---6-|-7-6-----3/5---5-||
6||-1-0---0-3/4---4-|-5-4---0-1/3---3-||

   "All that I have for you..."
1||------------------|------------------|------------------|-----------------||
2||------------------|------------------|------------------|-----------------||
3||------------------|------------------|------------------|-----------------||
4||------------------|------------------|------------------|-----------------||
5||---3---3/8--7--5--|---3---3/8--7--5--|---3---3/8--7--5--|-2-------2-------||
6||-1-1---1/6--5--3--|-1-1---1/6--5--3--|-1-1---1/6--5--3--|-0-------0-------||

   Repeat bars where necessary "Filled with hate"
1||-----------------|------------------|-----------------|------------------||
2||-----------------|------------------|-----------------|------------------||
3||-----------------|------------------|-----------------|------------------||
4||-----------------|------------------|-----------------|------------------||
5||-2-2-2---3-2-2---|-2-2-2---5--4--3--|-2-2-2---3-2-2---|-2-2-2---5--7--8--||
6||-0-0-0---1-0-0---|-0-0-0---3--2--1--|-0-0-0---1-0-0---|-0-0-0---3--5--6--||


1||-----------------|------------------|-----------------|------------------||---------||
2||-----------------|------------------|-----------------|------------------||---------||
3||-----------------|------------------|-----------------|------------------||---------||
4||-----------------|------------------|-----------------|------------------||---------||
5||---------3-2-2---|---------5--4--3--|---------3-2-2---|---------5--7--8--||-----2---||
6||-00000---1-0-0---|-00000---3--2--1--|-00000---1-0-0---|-00000---3--5--6--||-00000---||
            
Submit corrections

comments powered by Disqus
↑ Back to top | Hatebreed Tabs for Burn The Lies. Lyrics for acoustic guitar and electric guitar. Tablatures and chords are parodies/interpretations of the original songs. You may use it for private study, scholarship, research or language learning purposes only