» » »

Hatebreed, Burn The Lies Tabs (ver.3)

Artists:  A B C D E F G H I J K L M N O P Q R S T U V W X Y Z # 

Burn The Lies Tabs (ver.3)

Hatebreed Tabs
Rating:
0/5 (0 votes)
Burn The Lies lessons Tabs too difficult? Try these video lessons and learn fast
                DROP C TUNING (from low to high: C G C F A D)

After seeing the other tabs of this song, I was alarmed at how stupidly inaccurate they were.  So here’s the tab to set the record straight.

/ = slide
_ = palm mute

INTRO/VERSE
E--------------------------------------------------
B--------------------------------------------------
G--------------------------------------------------
D--------------------------------------------------
A-1-0-0-1/4-4-5-4-4-3333---------------------------
E-1-0-0-1/4-4-5-4-4-3333---------------------------

Play from “They’re so persuasive” to “Back down/their throats”.  Then play this (chorus):

E--------------------------------------------------
B--------------------------------------------------
G--------------------------------------------------
D--------------------------------------------------
A-----1-1-1--6-5-3-1-1-1--6-5-3-1-1-1--6-5-3-0--0--
E-----1-1-1--6-5-3-1-1-1--6-5-3-1-1-1--6-5-3-0--0--
p.m.  _            _            _
Alternate between them a few times until the outro which goes like this:

E--------------------------------------------------
B--------------------------------------------------
G--------------------------------------------------
D--------------------------------------------------
A----000-00000-000-321-----------------------------
E—---000-00000-000-321-----------------------------
p.m. ___ _____ ___

“I’m/filled with hate…”  

The last time you play it, play this instead of fretting “321”, fret “345”.
I know it’s hard to understand, but listen to the song and it’ll be OK.
            
Submit corrections

comments powered by Disqus
↑ Back to top | Hatebreed Tabs for Burn The Lies. Lyrics for acoustic guitar and electric guitar. Tablatures and chords are parodies/interpretations of the original songs. You may use it for private study, scholarship, research or language learning purposes only