» » »

Long Way Down Tabs (ver.2)

Artists:  A B C D E F G H I J K L M N O P Q R S T U V W X Y Z # 

Long Way Down Tabs (ver.2)

Haste The Day
Rating:
0/5 (0 votes)

Hard to play? Try these video lessons and learn fast.
                
A very fun lead to play.  Great for beginners but still a
challenge.  Focus on tone and picking.

I can play it better than I can tab it.  If something doesn't seem


Drop D!
E----------------------------------------------------------------|
B----------------------------------------------------------------|
G----------------------------------------------------------------|
D---7--10---7--10--9-9--10--10-10--9--10/12-12-12-12-12-10-10----|
A----------------------------------------------------------------|
D----------------------------------------------------------------|

E------------------------------------------------------------------|
B------------------------------------------------------------------|
G-----------------------------12h14--14--14--14p12----12--12h14----|
D--12--12/14--14--14--14-14-14----------------------14-------------|
A------------------------------------------------------------------|
D------------------------------------------------------------------|

                         (bend then pick)
E--------------------------\-------------------------------------|
B----------------------------------------------------------------|
G--14--14--14p12----12--14--16r14p12----12----12h14--14--14------|
D----------------14------------------14----14--------------------|
A----------------------------------------------------------------|
D----------------------------------------------------------------|

E----------------------------------------------------------------|
B------------15b17--15b17--15b17--15b17--15b17p15p13----13-------|
G--14-14-14------------------------------------------14----14----|
D----------------------------------------------------------------|
A----------------------------------------------------------------|
D----------------------------------------------------------------|

E-----------------------------------------------------------------|
B-----------------------------------------------------------------|
G--14p12----12----------------------------------------------------|
D--------14----14--12--12\10--10h12--12--10--------12--10--10--12-|
A-------------------------------------------12--10----------------|
D-----------------------------------------------------------------|

  (finger tapped)
E----------------------------------------------------------------|
B----------------------------------------------------------------|
G--7-t-12-p-9-p-7-h-9-t-12-p-9-p-7-h-9-t-12-p-9-p-7-h-9----------|
D----------------------------------------------------------------|
A----------------------------------------------------------------|
D----------------------------------------------------------------|

                                         (picked)
E-----------------------------------------------------------------|
B-----------------------------------------------------------------|
G--t-12-p-9-p-7-h-9-t-12-p-9-p-7-h-9-p-7--------------------------|
D----------------------------------------9--7--10--9--7\5--5h7--7-|
A-----------------------------------------------------------------|
D-----------------------------------------------------------------|
            
Hard to play? Try these video lessons and learn fast. | Correct




comments powered by Disqus
↑ Back to top | Tablatures and chords are parodies/interpretations of the original songs. You may use it for private study, scholarship, research or language learning purposes only