>
 >
Long Way Down

Long Way Down Bass Tabs

Haste The Day - Long Way Down chords, tabs, tablatures, lyrics

Guitar lessons | Add/correct | Request | Top 50 tabs Artists:  A B C D E F G H I J K L M N O P Q R S T U V W X Y Z 0-9

Long Way Down Bass Tabs – Haste The Day

CD, Sheet music, Poster

Do you like Long Way Down? Share with your friends now
Bass TabsBass Tabs v2TabsTabs v2Tabs v3
Long Way Down                                   
Haste The Day
Bass



             E  E  E  E  E  E  E   E     E   E  Q    Q    Q     
G||-------|---------------------------|------------------------|
D||-------|---------------------------|------------------------|
A||-------|---------------------------|------------------------|
D||-------|--5--7--x--7--7--7--7--10--|--L--10--9----7----5----|


  W                   W                   E  E  E  E  E  E  E   E   
-------------------|-------------------|---------------------------|
-------------------|-------------------|---------------------------|
-------------------|-------------------|---------------------------|
--3----------------|--5----------------|--5--7--x--7--7--7--7--10--|


  E   E  Q    Q    Q       W                   W                 
------------------------|-------------------|-------------------|
------------------------|-------------------|-------------------|
------------------------|-------------------|-------------------|
--L--10--9----7----5----|--3----------------|--5----------------|


  E  E  E  E  E  E  E   E     E   E  Q    Q    Q       W                 
---------------------------|------------------------|-------------------|
---------------------------|------------------------|-------------------|
---------------------------|------------------------|-------------------|
--5--7--x--7--7--7--7--10--|--L--10--9----7----5----|--3----------------|


  W                   E  E  E  E  E  E  E   E     E   E  Q    Q    Q     
-------------------|---------------------------|------------------------|
-------------------|---------------------------|------------------------|
-------------------|---------------------------|------------------------|
--5----------------|--5--7--x--7--7--7--7--10--|--L--10--9----7----5----|


  W                   W                   E  E  E  E  E  E  E  E   
-------------------|-------------------|--------------------------|
-------------------|-------------------|--------------------------|
-------------------|-------------------|--------------------------|
--3----------------|--5----------------|--5--7--7--7--7--7--7--7--|


  E  E  E  E  E  E  E  E     E  E  E  E  E  E  E  E   
--------------------------|--------------------------|
--------------------------|--------------------------|
--------------------------|--------------------------|
--7--7--7--7--7--7--7--7--|--5--7--7--7--7--7--7--7--|


  E  E  E  E  E  E  E  E       E  E  E  E  E  E  E  E   
--------------------------||---------------------------|
--------------------------||*--------------------------|
--------------------------||*--------------------------|
--7--7--7--7--7--7--7--7--||---5--7--7--7--7--7--7--7--|


  E  E  E  E  E  E  E  E     E  E  E  E  E  E  E  E     E  E  E  E  Q    Q     
--------------------------|--------------------------|------------------------|
--------------------------|--------------------------|------------------------|
--------------------------|--------------------------|------------------------|
--7--7--7--7--7--7--7--7--|--5--7--7--7--7--7--7--7--|--7--7--7--7--7----5----|


  W                   W                   E  E  E  E  E  E  E  E   
-------------------|-------------------|--------------------------|
-------------------|-------------------|--------------------------|
-------------------|-------------------|--------------------------|
--3----------------|--5----------------|--5--7--7--7--7--7--7--7--|


  E  E  E  E  E  E  E  E       W                   W                 
---------------------------||-------------------|-------------------|
--------------------------*||-------------------|-------------------|
--------------------------*||-------------------|-------------------|
--7--7--7--7--7--7--7--7---||--3----------------|--5----------------|


  W                   W                   W                   W                 
-------------------|-------------------|-------------------|-------------------|
-------------------|-------------------|-------------------|-------------------|
-------------------|-------------------|-------------------|-------------------|
--3----------------|--5----------------|--7----------------|--L----------------|


  E  E  E  E  E  E  E   E     E   E  Q    Q    Q       W                 
---------------------------|------------------------|-------------------|
---------------------------|------------------------|-------------------|
---------------------------|------------------------|-------------------|
--5--7--x--7--7--7--7--10--|--L--10--9----7----5----|--3----------------|


  W                   E  E  E  E  E  E  E   E     E   E  Q    Q    Q     
-------------------|---------------------------|------------------------|
-------------------|---------------------------|------------------------|
-------------------|---------------------------|------------------------|
--5----------------|--5--7--x--7--7--7--7--10--|--L--10--9----7----5----|


  W                   W                   E  E  E  E  E  E  E   E   
-------------------|-------------------|---------------------------|
-------------------|-------------------|---------------------------|
-------------------|-------------------|---------------------------|
--3----------------|--5----------------|--5--7--x--7--7--7--7--10--|


  E   E  Q    Q    Q       W                   W                 
------------------------|-------------------|-------------------|
------------------------|-------------------|-------------------|
------------------------|-------------------|-------------------|
--L--10--9----7----5----|--3----------------|--5----------------|


  E  E  E  E  E  E  E  E     E  E  E  E  E  E  E  E   
--------------------------|--------------------------|
--------------------------|--------------------------|
--------------------------|--------------------------|
--5--7--7--7--7--7--7--7--|--7--7--7--7--7--7--7--7--|


  E  E  E  E  E  E  E  E     E  E  E  E  E  E  E  E   
--------------------------|--------------------------|
--------------------------|--------------------------|
--------------------------|--------------------------|
--5--7--7--7--7--7--7--7--|--7--7--7--7--7--7--7--7--|


    E  E  E  E  E  E  E  E     E  E  E  E  E  E  E  E   
|---------------------------|--------------------------|
|*--------------------------|--------------------------|
|*--------------------------|--------------------------|
|---5--7--7--7--7--7--7--7--|--7--7--7--7--7--7--7--7--|


  E  E  E  E  E  E  E  E     E  E  E  E  Q    Q       W                 
--------------------------|------------------------|-------------------|
--------------------------|------------------------|-------------------|
--------------------------|------------------------|-------------------|
--5--7--7--7--7--7--7--7--|--7--7--7--7--7----5----|--3----------------|


  W                   E  E  E  E  E  E  E  E     E  E  E  E  E  E  E  E     
-------------------|--------------------------|---------------------------||
-------------------|--------------------------|--------------------------*||
-------------------|--------------------------|--------------------------*||
--5----------------|--5--7--7--7--7--7--7--7--|--7--7--7--7--7--7--7--7---||


  W                   W                   W                   W                 
-------------------|-------------------|-------------------|-------------------|
-------------------|-------------------|-------------------|-------------------|
-------------------|-------------------|-------------------|-------------------|
--3----------------|--5----------------|--3----------------|--5----------------|


  W                   W                   E  E  E  E  E  E  E   E   
-------------------|-------------------|---------------------------|
-------------------|-------------------|---------------------------|
-------------------|-------------------|---------------------------|
--7----------------|--L----------------|--5--7--x--7--7--7--7--10--|


  E   E  Q    Q    Q       W                   W                 
------------------------|-------------------|-------------------|
------------------------|-------------------|-------------------|
------------------------|-------------------|-------------------|
--L--10--9----7----5----|--3----------------|--5----------------|


  E  E  E  E  E  E  E   E     E   E  Q    Q    Q       W                 
---------------------------|------------------------|-------------------|
---------------------------|------------------------|-------------------|
---------------------------|------------------------|-------------------|
--5--7--x--7--7--7--7--10--|--L--10--9----7----5----|--3----------------|


  W                   E  E  E  E  E  E  E   E     E   E  Q    Q    Q     
-------------------|---------------------------|------------------------|
-------------------|---------------------------|------------------------|
-------------------|---------------------------|------------------------|
--5----------------|--5--7--x--7--7--7--7--10--|--L--10--9----7----5----|


  W                   W                    Q    E   Q    E   E  E   
-------------------|-------------------|---------------------------|
-------------------|-------------------|--/7----7--10----7--10--9--|
-------------------|-------------------|---------------------------|
--3----------------|--5----------------|---------------------------|


  Q    E   Q     E   E  E      Q     E   Q     E   E   E   
---------------------------|------------------------------|
--9----9--10----10--10--9--|--10----12--12----12--12--10--|
---------------------------|------------------------------|
---------------------------|------------------------------|


   Q     E   Q     E   E   E      E   E   E   E   E   E   E   E   
------------------------------|--12--14--14--14--14--12------12--|
--12----14--14----14--14--14--|--------------------------14------|
------------------------------|----------------------------------|
------------------------------|----------------------------------|


  E   E   E   E   E   E   E   E     E   E   E    E   E   E   E   E   
--L--14--14--14--14--12------12--|--L--14--14br--L--12------12------|
-------------------------14------|----------------------14------14--|
---------------------------------|----------------------------------|
---------------------------------|----------------------------------|


   E  E   E   E   E  E  E  E     Q     Q     Q     Q       
--12--L--14--14--14-----------|--7b----7b----7b----7br----|
------------------------------|---------------------------|
------------------------------|---------------------------|
------------------------------|---------------------------|


  Q      E  Q    E  E  E     E   E  E   E   E   E   E   E   
--7br----2--5----L--2-----|--9--12--9----------------------|
-----------------------5--|------------12--12--10--12--10--|
--------------------------|--------------------------------|
--------------------------|--------------------------------|


                                           |---3--|        |---3--|   
   E   E   E   E   E   E   E   E     Q     E   E  E  Q     E   E  E   
----------------------------------|--7b----9--12--9--7b----9--12--9--|
------10--12--10--12--10--12--10--|----------------------------------|
--12------------------------------|----------------------------------|
----------------------------------|----------------------------------|


        |---3--|        |---3--|           |---3--|        |---3--|   
  Q     E   E  E  Q     E   E  E     Q     E   E  E  Q     E   E  E   
--7b----9--12--9--7b----9--12--9--|--7b----9--12--9--7b----9--12--9--|
----------------------------------|----------------------------------|
----------------------------------|----------------------------------|
----------------------------------|----------------------------------|


        |--3--|                                          
  Q     E  E  E  E  E  E  E     E  E  E  E  E  E  E  E   
--7b----7--5-----------5--4--|--------------------------|
--------------7--5--7--------|--------------------------|
-----------------------------|--------------------------|
-----------------------------|--5--7--7--7--7--7--7--7--|


  E  E  E  E  E  E  E  E     E  E  E  E  E  E  E  E   
--------------------------|--------------------------|
--------------------------|--------------------------|
--------------------------|--------------------------|
--5--7--7--7--7--7--7--7--|--5--7--7--7--7--7--7--7--|


  E  E  E  E  E  E  E  E       E  E  E  E  E  E  E  E   
--------------------------||---------------------------|
--------------------------||*--------------------------|
--------------------------||*--------------------------|
--7--7--7--7--7--7--7--7--||---5--7--7--7--7--7--7--7--|


  E  E  E  E  E  E  E  E     E  E  E  E  E  E  E  E     E  E  E  E  Q    Q     
--------------------------|--------------------------|------------------------|
--------------------------|--------------------------|------------------------|
--------------------------|--------------------------|------------------------|
--7--7--7--7--7--7--7--7--|--5--7--7--7--7--7--7--7--|--7--7--7--7--7----5----|


  W                   W                   W                   W                 
-------------------|-------------------|-------------------|-------------------|
-------------------|-------------------|-------------------|-------------------|
-------------------|-------------------|-------------------|-------------------|
--3----------------|--5----------------|--3----------------|--5----------------|


  W                   W                   W                   W                 
-------------------|-------------------|-------------------|-------------------|
-------------------|-------------------|-------------------|-------------------|
-------------------|-------------------|-------------------|-------------------|
--3----------------|--5----------------|--7----------------|--L----------------|


  E  E  E  E  E  E  E   E     E   E  Q    Q    Q       W                 
---------------------------|------------------------|-------------------|
---------------------------|------------------------|-------------------|
---------------------------|------------------------|-------------------|
--5--7--x--7--7--7--7--10--|--L--10--9----7----5----|--3----------------|


  W                   E  E  E  E  E  E  E   E     E   E  Q    Q    Q     
-------------------|---------------------------|------------------------|
-------------------|---------------------------|------------------------|
-------------------|---------------------------|------------------------|
--5----------------|--5--7--x--7--7--7--7--10--|--L--10--9----7----5----|


  W                   W                   E  E  E  E  E  E  E   E   
-------------------|-------------------|---------------------------|
-------------------|-------------------|---------------------------|
-------------------|-------------------|---------------------------|
--3----------------|--5----------------|--5--7--x--7--7--7--7--10--|


  E   E  Q    Q    Q       W                   W                 
------------------------|-------------------|-------------------|
------------------------|-------------------|-------------------|
------------------------|-------------------|-------------------|
--L--10--9----7----5----|--3----------------|--5----------------|


  W                   W                   W                   W                 
-------------------|-------------------|-------------------|-------------------|
-------------------|-------------------|-------------------|-------------------|
-------------------|-------------------|-------------------|-------------------|
--3----------------|--5----------------|--3----------------|--5----------------|


  W                   W                           W                 
-------------------|-------------------|-------|-------------------|
-------------------|-------------------|-------|-------------------|
-------------------|-------------------|-------|-------------------|
--3----------------|--5----------------|-------|--5----------------|


  Q    E  Q    E  Q       H.           Q       Q    E  Q    E  Q     
-----------------------|--------------------|-----------------------|
-----------------------|--------------------|-----------------------|
-----------------------|--------------------|-----------------------|
--7-------7-------5----|--L-----------------|--7-------7-------3----|


  W                   W                   W                  
-------------------|-------------------|-------------------||
-------------------|-------------------|-------------------||
-------------------|-------------------|-------------------||
--L----------------|--L----------------|--L----------------||




Duration Legend
---------------
W - whole
H - half
Q - quarter
E - 8th
S - 16th
T - 32nd
X - 64th
. - note dotted
|-n-|  - n-tuplets


Tablature Legend
----------------
L - tied note
x - dead note
g - grace note
(n) - ghost note
> - accentuded note
NH - natural harmonic
AH - artificial harmonic
TH - tapped harmonic
SH - semi harmonic
PH - pitch harmonic
h - hammer on
p - pull off
b - bend
br - bendRelease
pb - preBend
pbr - preBendRelease
brb - bendReleaseBend
\n/ - tremolo bar dip
\n - tremolo bar dive
-/n - tremolo bar Release up
/n\ - tremolo bar inverted dip
/n - tremolo bar return
-\n - tremolo bar Release down
S - shift slide
s - legato slide
/ -  slide into from below or out of upwards
\ -  slide into from above or out of downwards
~ - vibrato
W - wide vibrato
tr - trill
TP - tremolo picking
T - tapping
S - slap
P - pop
< - fade in
^ - brush up
v - brush down





Comments


Popular Haste The Day tabs & chords
Autumn Bass Tabs
When Everything Falls Bass Tabs
An Honest Confession Intro Tabs
Autumn 3 Tabs
Bleed Alone Tabs
Epitaph Tabs
For A Lifetime 1 Tabs
Meet Me Halfway Tabs
Porcelain Intro Tabs
Travesty Tabs


Song lyrics



↑ Back to top | Tablatures and chords are parodies/interpretations of the original songs. You may use it for private study, scholarship, research or language learning purposes only
© 2014 AZChords.com Contact us | Privacy policy | DMCA | Add/correct tabs | Request tabs | Top 50 tabs