>
 >
Long Way Down 1

Long Way Down 1 Guitar Tabs

Haste The Day - Long Way Down 1 chords, tabs, tablatures, lyrics

Guitar lessons | Add/correct | Request | Top 50 tabs Artists:  A B C D E F G H I J K L M N O P Q R S T U V W X Y Z 0-9

Long Way Down 1 Guitar Tabs – Haste The Day

CD, Sheet music, Poster

Do you like Long Way Down 1? Share with your friends now
Bass TabsBass Tabs v2TabsTabs v2Tabs v3
 haste the day - long way down

 Drop D tuning

 E|-------------------------| repeat x4
 B|-------------------------|
 G|-------------------------|
 D|--7-7-x-x--10-9-7-5-3-~-5|
 A|--7-7-x-x--10-9-7-5-3-~-5|
 D|--7-7-x-x--10-9-7-5-3-~-5|

second guitar

 E|-------------------------| repeat x8
 B|-------------------------|
 G|-------------------------|
 D|-----9-~-10-10-10-10-----|
 A|-------------------------|
 D|-------------------------|

  no repeat
 E|-----------------------------------------------------------------| 
 B|-----------------------------------------------------------------|
 G|--12-10-9-7-9----------------------------------12-10-9-7-9-------|
 D|--------------9-~-10-10-10-10--9-~-10-10-10-10-------------9-~-10|
 A|-----------------------------------------------------------------|
 D|-----------------------------------------------------------------|
"oh here you are" (drums and bass)

 

 first guitar 

"your not suppose to be that way"

Verse:

 E|--------------------------------------------------------|
 B|--------------------------------------------------------|
 G|--------------------------------------------------------|
 D|----7-5-3-~-5-~-5/7-----7-5-3-~-5-~-3-~-5-~-3-~-5-~-7-~-|
 A|----7-5-3-~-5-~-5/7-----7-5-3-~-5-~-3-~-5-~-3-~-5-~-7-~-|
 D|----7-5-3-~-5-~-5/7-----7-5-3-~-5-~-3-~-5-~-3-~-5-~-7-~-|

Chorus

"long way down"

 E|-------------------------| repeat x4
 B|-------------------------|
 G|-------------------------|
 D|--7-7-x-x--10-9-7-5-3-~-5|
 A|--7-7-x-x--10-9-7-5-3-~-5|
 D|--7-7-x-x--10-9-7-5-3-~-5|

"i never put you down"
verse
 E|--------------------------------------------------------|
 B|--------------------------------------------------------|
 G|--------------------------------------------------------|
 D|----7-5-3-~-5-~-5/7-----7-5-3-~-5-~-3-~-5-~-3-~-5-~-7-~-|
 A|----7-5-3-~-5-~-5/7-----7-5-3-~-5-~-3-~-5-~-3-~-5-~-7-~-|
 D|----7-5-3-~-5-~-5/7-----7-5-3-~-5-~-3-~-5-~-3-~-5-~-7-~-|



Chorus
"long way down"

 E|-------------------------| repeat x4
 B|-------------------------|
 G|-------------------------|
 D|--7-7-x-x--10-9-7-5-3-~-5|
 A|--7-7-x-x--10-9-7-5-3-~-5|
 D|--7-7-x-x--10-9-7-5-3-~-5|

Solo:Rhythm guitar 

(i figured out only hlaf of the solo if you figure out the rest mail me)

 E|----------------------------------------------------------------------|
 B|----------------------------------------------------------------------|
 G|----------------------------------------------------------------------|
 D|--9-~-10-10-10-10-10-~-9-~-10-10-10-10-10-12-12-12-10-~12-~14-14-14-14|
 A|----------------------------------------------------------------------|
 D|----------------------------------------------------------------------|

 E|--------------------------------------------------------------12-12-12|
 B|----------------------------------------------------------------------|
 G|12-~-14-14-14-14----12-~-14-14-14-14-12-16-16-16-12-~-14-14-14--------|
 D|-----------------14---------------------------------------------------|
 A|----------------------------------------------------------------------|
 D|----------------------------------------------------------------------|
(yep thats all iv gotten so far with the solo)

first guitar during solo

 E|--------------------------| repeat x4
 B|--------------------------|
 G|--------------------------|
 D|--7----3----5----3--------|
 A|--7-x6-3-x6-5-x6-3-x6-----|
 D|--7----3----5----3--------|

 E|--------------------------| 
 B|--------------------------|
 G|--------------------------|
 D|--7-----------------------|
 A|--7-----------------------|
 D|--7-----------------------|


"never put you down" (drums and bass)


"take another peice of me" 
verse
 E|-----------------------------------|
 B|-----------------------------------|
 G|-----------------------------------|
 D|---7-5-3-~-5-~-3-~-5-~-3-~-5-~-7-~-|
 A|---7-5-3-~-5-~-3-~-5-~-3-~-5-~-7-~-|
 D|---7-5-3-~-5-~-3-~-5-~-3-~-5-~-7-~-|

Chorus
"long way down"

 E|-------------------------| repeat x4
 B|-------------------------|
 G|-------------------------|
 D|--7-7-x-x--10-9-7-5-3-~-5|
 A|--7-7-x-x--10-9-7-5-3-~-5|
 D|--7-7-x-x--10-9-7-5-3-~-5|

 E|-------------------------| repeat x4
 B|-------------------------|
 G|-------------------------|
 D|--3-~-5------------------|
 A|--3-~-5------------------|
 D|--3-~-5------------------|

ending

 E|-------------------------| 
 B|-------------------------|
 G|-------------------------|
 D|--7-7-5---7-7-3----------|
 A|--7-7-5---7-7-3----------|
 D|--7-7-5---7-7-3----------|

finish. let the notes ring out.

lyrics:

LONG WAY DOWN-

Oh, here you are there's nothing left to say 
You're not supposed to be that way 
Did they push you out 
Did they throw you away 

Touch me now and I don't care 
When you take me I'm not there 
Almost human but I'll never be the same 

Long way down I don't think I'll make it on my own 
Long way down I don't want to live in here alone 
Long way down I don't think I'll make it on my own 

Never put you down I never pushed you away 
You're not supposed to be that way 
And anything you want there's nothing I could say 

Is there anything to feel 
Is it pain that makes you real 
Cut me off before it kills me 

Long way down I don't think I'll make it on my own 
Long way down I don't want to live in here alone 
Long way down I don't think I'll make it on my own 

(solo)

I never put you down I never pushed you away 

Take another piece of me 
Give my mind a new disease 
And the black and white world never fades to gray 

Long way down I don't think I'll make it on my own 
Long way down I don't want to live in here alone 
Long way down I don't think I'll make it on my own 





Comments


Popular Haste The Day tabs & chords
Blue 42 Bass Tabs
Bleed Alone Tabs
Epitaph Tabs
For A Lifetime Tabs
For A Lifetime 1 Tabs
Porcelain Intro Tabs
Pressure The Hinges Tabs
Servant Ties Intro Tabs
Sons Of The Fallen Nation Tabs
Travesty Tabs


Song lyrics



↑ Back to top | Tablatures and chords are parodies/interpretations of the original songs. You may use it for private study, scholarship, research or language learning purposes only
© 2014 AZChords.com Contact us | Privacy policy | DMCA | Add/correct tabs | Request tabs | Top 50 tabs