» » »

For A Lifetime Tabs (ver.2)

Artists:  A B C D E F G H I J K L M N O P Q R S T U V W X Y Z # 

For A Lifetime Tabs (ver.2)

Haste The Day
Rating:
5/5 (2 votes)

Hard to play? Try these video lessons and learn fast.
                
Im pretty sure these are all the right tabs. Enjoi.

x:palm mute

Intro
E|------------------------------------------|
B|------------------------------------------|
G|------------------------------------------|
D|-43-64343-43-64343----4343---43-1---------|
A|------------------22------44--4-----------|
E|------------------------------------------|

E|------------------------------------------|
B|------------------------------------------|
G|---8xxx-868-------8xxx-11-1086------------|
D|---8xxx-868-------8xxx--9-8-64-68---------|
A|--6xxx-646-------6xxx---------46----------|
E|------------------------------------------|

E|------------------------------------------|
B|------------------------------------------|
G|------------------------------------------|
D|-43-64343-43-64343----4343---43-1---------|
A|------------------22------44--4-----------|
E|------------------------------------------|

Chorus
E|------------------------------------------|
B|------------------------------------------|
G|--11-1086---------------------------------|
D|---9-8-64-68---888111111104444------------|
A|---------46---6669-9-9-8-2222-------------|
E|------------------------------------------|

E|------------------------------------------|
B|------------76-76-76----------------------|
G|----43------------6--6--------------------|
D|--43--4643--------------------------------|
A|------------------------------------------|
E|------------------------------------------|

E|------------------------------------------|
B|------------------------------------------|
G|---8xxx-9--8xxx-11--8xxx-8--686868--------|
D|---8xxx-9--8xxx-11--8xxx-8--686868--------|
A|---6xxx-7--6xxx-9---6xxx-6--464646--------|
E|------------------------------------------|

E|--------------------|
B|--------------------|
G|--------------------|
D|--------------------|
A|---98--119898-------|
E|--------------------|
            
Hard to play? Try these video lessons and learn fast. | Correct




comments powered by Disqus
↑ Back to top | Tablatures and chords are parodies/interpretations of the original songs. You may use it for private study, scholarship, research or language learning purposes only