>
 >
For A Lifetime

For A Lifetime Guitar Tabs

Haste The Day - For A Lifetime chords, tabs, tablatures, lyrics

Guitar lessons | Add/correct | Request | Top 50 tabs Artists:  A B C D E F G H I J K L M N O P Q R S T U V W X Y Z 0-9

For A Lifetime Guitar Tabs – Haste The Day

CD, Sheet music, Poster

Do you like For A Lifetime? Share with your friends now
TabsTabs v2
-----------------------------------------------------------------------
                             For A Lifetime – Haste The Day
-----------------------------------------------------------------------

Tuning: Drop C

This is one of my favorite songs by Haste The Day so I thought I’d tab it out
                                                         
D|---------------------------------------------------------------|
A|---------------------------------------------------------------|
F|---------------------------------------------------------------|
C|0--------------------0-------------------8---------10-----10-12|x4
G|0--8-7----10-8—7h8p7-0--8-7--10--8-7h8p7-8-8-7h8p7-10-8-7-10-12|
C|0-0-0-000---0-0------0-0-0-00--00-0------8---------10-----10-12|
    x x xxx   x x        x x xx  xx x

D|---------------------------------------------------------|
A|---------------------------------------------------------|
F|---------------------------------------------------------|
C|------------------------10/12—----------------------10/12|
G|------------------------10/12-----------------------10/12|
C|0-0-0-000-0-000-000-0---10/12-0-0-0-000-0-000-000-0-10/12|
  x x x xxx x xxx xxx x         x x x xxx x xxx xxx x
D|
A|------------------------------------------------------|
F|-----------------------15-15-14-14-12-12-10-10--------|
C|-----------------------15-15-14-14-12-12-10-10-0-10/12|
G|-----------------------13-13-12-12-10-10-8--8—-0-10/12|
C|0-0-0-000-0-000-000-0--------------------------0-10/12|
  x x x xxx x xxx xxx x
                                                         
D|-------------------------------------------------------------|
A|-------------------------------------------------------------|
F|-------------------------------------------------------------|
C|-------------------0-------------------8---------10-----10-12| x2
G|-8-7----10-8—7h8p7-0--8-7--10--8-7h8p7-8-8-7h8p7-10-8-7-10-12|
C|0-0-000---0-0------0-0-0-00--00-0------8---------10-----10-12|
  x x xxx   x x        x x xx  xx x

D|----------------------------------------------|
A|----------------------------------------------|
F|---------------15-15-14-14-12-12-10-10--------|
C|0--------------15-15-14-14-12-12-10-10-0-10/12|
G|0-x7-----------13-13-12-12-10-10-8—-8—-0-10/12|
C|0--------------------------------------0-10/12| 
  x


D|-------------------------|--------------|
A|-------------------------|--------------|
F|------10----9------------|12-10-9-10-9-7|
C|12----10-x4-9-x4-8-----x4|--------------|
G|12-x8-8-----7----8-x16---|--------------|
C|12---------------8-------|--------------|
                                          
D|----------------------------------------------|
A|----------------------------------------------|
F|------14h15p14----------------9h10p9—-9h10p9--|
C|0-------------15-17-15-148----------10------10|
G|0-8-7--------------------8-8-7----------------|
C|0------------------------8--------------------|


D|--------------------------------------------------|
A|--------------------------------------------------|
F|------14h15p14----------------9h10p9--------------|x2
C|0-------------15-17-15-148----------10-10/12-14-15|
G|0-8-7--------------------8-8-7--------------------|
C|0------------------------8------------------------|

                                                 
D|-----------------------------------------------------------------|
A|-----------------------------------------------------------------|
F|----------------8--------------10--------------7------5/7-5/7-5/7|
C|0---------------8--------------10--------------7------5/7-5/7-5/7|
G|0---------------6--------------8---------------5------3/5-3/5-3/5|
C|0-00-0-0-00-0-00-00-0-0-00-0-00—-00-0-0-00-0-00-00-0-0-----------|
    xx x x xx x xx xx x x xx x xx  xx x x xx x xx xx x x
D|-------------------------------------------------------|
A|-------------------------------------------------------|
F|----------------8--------------10--------------7------5|
C|0---------------8--------------10--------------7------5|
G|0---------------6--------------8---------------5------3|
C|0-00-0-0-00-0-00-00-0-0-00-0-00—-00-0-0-00-0-00-00-0-0-|
    xx x x xx x xx xx x x xx x xx  xx x x xx x xx xx x x
D|------------------|
A|------------------|
F|------------------|
C|------------------|
G|8p7-7h8-10-8p7-7h8|
C|------------------|

Figure out how many times to repeat each cord when you listen to the song
D|-----------------------------------------------------|
A|-----------------------------------------------------|
F|--------------------------14-12-10-------------------|
C|8-7-10--------------------X—-X—-X--------------------|
G|8-7-10-8p7-7h8-10-8p7-7h8-12-10-8--8p7-7h8-10-8p7-7h8|
C|8-7-10-----------------------------------------------|

D|--------------------------------------|
A|--------------------------------------|
F|--------------------------------------|
C|8-12-10--------------------8-7-5-3-2-0|
G|8-12-10-8p7-7h8-10-8p7-7h8-8-7-5-3-2-0|
C|8-12-10--------------------8-7-5-3-2-0|

D|-----------------------------------------------------------------|
A|-----------------------------------------------------------------|
F|----------------8--------------10--------------7------5/7-5/7-5/7|
C|0---------------8--------------10--------------7------5/7-5/7-5/7|X4
G|0---------------6--------------8---------------5------3/5-3/5-3/5|
C|0-00-0-0-00-0-00-00-0-0-00-0-00—-00-0-0-00-0-00-00-0-0-----------|
    xx x x xx x xx xx x x xx x xx  xx x x xx x xx xx x x

Here’s the only time that I deciphered both guitars because it’s obvious right here
and it’s not that hard to figure it out. One of them keeps playing the part I tabbed
out above this while the other plays this

D|--------------|
A|--------------|
F|--------------|
C|--------------|
G|8-7-10-8-7h8p7|
C|--------------|





Comments


Popular Haste The Day tabs & chords
Blue 42 Bass Tabs
White Collar Bass Tabs
68 1 Tabs
Invoke Reform Tabs
Janet's Planet 1 Tabs
Long Way Down Tabs
O Come Emmanuel Tabs
O Come Emmanuel 1 Tabs
Ros King Tabs
Walls Fears Tabs


Song lyrics



↑ Back to top | Tablatures and chords are parodies/interpretations of the original songs. You may use it for private study, scholarship, research or language learning purposes only
© 2014 AZChords.com Contact us | Privacy policy | DMCA | Add/correct tabs | Request tabs | Top 50 tabs