» » »

Haste The Day, Breaking My Own Heart Tabs (ver.1)

Artists:  A B C D E F G H I J K L M N O P Q R S T U V W X Y Z # 

Breaking My Own Heart Tabs (ver.1)

Haste The Day Tabs
 Rating:
4/5 (8 votes)
Breaking My Own Heart lessons Tabs too difficult? Try these video lessons and learn fast
1
                The Tuning Is Drop C (C G C F A D)


             Haste The Day - Breaking My Own Heart

Intro

D|------------------------------------------------------|
A|------------------------------------------------------|
F|--7--X-X-X-X-X--7--5--7--5-7-5--3-3333333--5-5555555--| x2
C|--7--X-X-X-X-X--7--5--7--5-7-5--3-3333333--5-5555555--|
G|--5--X-X-X-X-X--5--3--5--3-5-3--1-1111111--3-3333333--|
C|------------------------------------------------------|

Short Solo

D|-------------------------------------------------|
A|--15-15-15-15-15-15-15-15------------------------|
F|--19-19-19-19-19-19-19-19--12b(13)-13-12-10-12b--|
C|-------------------------------------------------|
G|-------------------------------------------------|
C|-------------------------------------------------|

D|---------------------------------------------|
A|--10-13-12-10--13-12-10--13-12-10--13-12-10--|
F|---------------------------------------------| x2
C|---------------------------------------------|
G|---------------------------------------------|
C|---------------------------------------------|

D|---------------------------------------------|
A|--15-18-17-15--18-17-15--18-17-15--18-17-15--|
F|---------------------------------------------|
C|---------------------------------------------|
G|---------------------------------------------|
C|---------------------------------------------|

D|------------------------------------------------------|
A|--17-20-19-17--20-19-17--20-19-17--20-19-17--20b(21)--|
F|------------------------------------------------------|
C|------------------------------------------------------|
G|------------------------------------------------------|
C|------------------------------------------------------|


D|------------------------------------------------------|
A|------------------------------------------------------|
F|--7--X-X-X-X-X--7--5--7--5-7-5--3-3333333--5-5555555--| x2
C|--7--X-X-X-X-X--7--5--7--5-7-5--3-3333333--5-5555555--|
G|--5--X-X-X-X-X--5--3--5--3-5-3--1-1111111--3-3333333--|
C|------------------------------------------------------|

D|----------------------------------------|
A|----------------------------------------|
F|----------------------------------------| x3
C|--9--9-7b--7--7-5b--5--5-4---5-7-5-4-5--|
G|--7--------5--------3------5------------|
C|----------------------------------------|

D|-----------------------|
A|-----------------------|
F|--------------------5--|
C|--9--9-7b--7--7-5b--5--|
G|--7--------5--------3--|
C|-----------------------|

D|----------------------------------------------------------------|
A|-----------0---------------0---------------0---------------0----|
F|---------0---0-----------0---0-----------0---0-----------0---0--| x3
C|----9---------------7---------------5---------------5-----------|
G|--7---7-----------5---5-----------3---3-----------3---3---------|
C|----------------------------------------------------------------|

D|-------------------------------------|
A|-----------0---------------0---------|
F|---------0---0-----------0---0----5--|
C|----9---------------7-------------5--|
G|--7---7-----------5---5-----------3--|
C|-------------------------------------|

D|--------------------------------------------------------|
A|--------------------------------------------------------|
F|--9-7-9--9-9-9--7--7-7-7-7-7--5-5-5-5-5-5-5-5-5-5--7-7--| x4
C|--9-7-9--9-9-9--7--7-7-7-7-7--5-5-5-5-5-5-5-5-5-5--7-7--|
G|--7-5-7--7-7-7--5--5-5-5-5-5--3-3-3-3-3-3-3-3-3-3--5-5--|
C|--------------------------------------------------------|

D|-----------------------------------------------------------------|
A|-----------------------------------------------------------------|
F|-----------------------------------------------------------------| x3
C|------9--------9--------7--------7--------5---4-5-5---5---4-5-5--|
G|--7-7---7--7-7---7--5-5---5--5-5---5--3-3---5-------3---5--------|
C|-----------------------------------------------------------------|

D|-------------------------------------------------------------------|
A|-------------------------------------------------------------------|
F|--------------------------------------5-5-5-5-5-5-5-5-5-5-5-5-5-5--|
C|------9--------9--------7--------7----5-5-5-5-5-5-5-5-5-5-5-5-5-5--|
G|--7-7---7--7-7---7--5-5---5--5-5---5--3-3-3-3-3-3-3-3-3-3-3-3-3-3--|
C|-------------------------------------------------------------------|

D|--------------------------------------------------------|
A|--------------------------------------------------------|
F|--9-7-9--9-9-9--7--7-7-7-7-7--5-5-5-5-5-5-5-5-5-5--7-7--|
C|--9-7-9--9-9-9--7--7-7-7-7-7--5-5-5-5-5-5-5-5-5-5--7-7--|
G|--7-5-7--7-7-7--5--5-5-5-5-5--3-3-3-3-3-3-3-3-3-3--5-5--|
C|--------------------------------------------------------|


D|-----------------------------------------------------|
A|-----------------------------------------------------|
F|--9-9-9-9-9-9-7-7-7-7-7-7-7-5-5-5-5-5-5-5-5-5-5-5-5--| x3
C|--9-9-9-9-9-9-7-7-7-7-7-7-7-5-5-5-5-5-5-5-5-5-5-5-5--|
G|--7-7-7-7-7-7-5-5-5-5-5-5-5-3-3-3-3-3-3-3-3-3-3-3-3--|
C|-----------------------------------------------------|

Outro

D|---------------------------------------|
A|---------------------------------------|
F|--9-9-9-9-9-9-7-7-7-7-7-7-7----5----5--|
C|--9-9-9-9-9-9-7-7-7-7-7-7-7----5----5--|
G|--7-7-7-7-7-7-5-5-5-5-5-5-5----3----3--|
C|---------------------------------------|
            
Submit corrections

comments powered by Disqus
↑ Back to top | Haste The Day Tabs for Breaking My Own Heart. Lyrics for acoustic guitar and electric guitar. 1 Tablatures and chords are parodies/interpretations of the original songs. You may use it for private study, scholarship, research or language learning purposes only