>
 >
Breaking My Own Heart

Breaking My Own Heart Bass Tabs

Haste The Day - Breaking My Own Heart chords, tabs, tablatures, lyrics

Guitar lessons | Add/correct | Request | Top 50 tabs Artists:  A B C D E F G H I J K L M N O P Q R S T U V W X Y Z 0-9

Breaking My Own Heart Bass Tabs – Haste The Day

CD, Sheet music, Poster

Do you like Breaking My Own Heart? Share with your friends now
Bass TabsTabsTabs v2Tabs v3Tabs v4
Breaking My Own Heart                               
Haste The Day
Bass



     W                   W                   W                 
F||-------------------|-------------------|-------------------|
C||-------------------|-------------------|-------------------|
G||-------------------|-------------------|-------------------|
C||-------------------|-------------------|-------------------|


  W                   Q    Q    Q.     E     S S E.  S E.  S E   E   E   
-------------------|----------------------|-----------------------------|
-------------------|----------------------|-----------------------------|
-------------------|--5----------------5--|--L---3-----5-----3s--5s--3--|
-------------------|----------------------|-----------------------------|


  Q    S S S S S S S S S S S S    Q    S S S S S S S S S S S S  
-------------------------------|-------------------------------|
-------------------------------|-------------------------------|
--1----1-1-1-1-1-1-1-1-1-1-1-1-|--3----3-3-3-3-3-3-3-3-3-3-3-3-|
-------------------------------|-------------------------------|


  Q    E  E  E  E  E  E     E  Q    Q    E   E   E   
-------------------------|--------------------------|
-------------------------|--------------------------|
--5----5--5--5--5--5--5--|--L--3----5----3s--5s--3--|
-------------------------|--------------------------|


  Q    S S S S S S S S S S S S    Q    S S S S S S S S S S S S  
-------------------------------|-------------------------------|
-------------------------------|-------------------------------|
--1----1-1-1-1-1-1-1-1-1-1-1-1-|--3----3-3-3-3-3-3-3-3-3-3-3-3-|
-------------------------------|-------------------------------|


  Q    E  E  E  E  E  E     E  Q    Q    E   E   E   
-------------------------|--------------------------|
-------------------------|--------------------------|
--5----5--5--5--5--5--5--|--L--3----5----3s--5s--3--|
-------------------------|--------------------------|


  Q    S S S S S S S S S S S S    Q    S S S S S S S S S S S S  
-------------------------------|-------------------------------|
-------------------------------|-------------------------------|
--1----1-1-1-1-1-1-1-1-1-1-1-1-|--3----3-3-3-3-3-3-3-3-3-3-3-3-|
-------------------------------|-------------------------------|


  Q    E  E  E  E  E  E     E  Q    Q    E   E   E   
-------------------------|--------------------------|
-------------------------|--------------------------|
--5----5--5--5--5--5--5--|--L--3----5----3s--5s--3--|
-------------------------|--------------------------|


  Q    S S S S S S S S S S S S    Q    S S S S S S S S S S S S  
-------------------------------|-------------------------------|
-------------------------------|-------------------------------|
--1----1-1-1-1-1-1-1-1-1-1-1-1-|--3----3-3-3-3-3-3-3-3-3-3-3-3-|
-------------------------------|-------------------------------|


  Q    E  E  E  E  E  E     E  Q    Q    E   E   E   
-------------------------|--------------------------|
-------------------------|--------------------------|
--5----5--5--5--5--5--5--|--L--3----5----3s--5s--3--|
-------------------------|--------------------------|


  Q    S S S S S S S S S S S S    Q    S S S S S S S S S S S S  
-------------------------------|-------------------------------|
-------------------------------|-------------------------------|
--1----1-1-1-1-1-1-1-1-1-1-1-1-|--3----3-3-3-3-3-3-3-3-3-3-3-3-|
-------------------------------|-------------------------------|


  Q    E  E.  S Q    E     Q    E  E.  S Q    E     Q    E  E  E  E  E  E   
------------------------|------------------------|-------------------------|
------------------------|------------------------|-------------------------|
------------------------|------------------------|--3----3--3--3--3--3--3--|
--2-------2-----2----2--|--0-------0-----0----0--|-------------------------|


  E  E  E  E  E  E  E  E     Q    E  E.  S Q    E     Q    E  E.  S Q    E   
--------------------------|------------------------|------------------------|
--------------------------|------------------------|------------------------|
--3--3--3--3--3--3--3--3--|------------------------|------------------------|
--------------------------|--2-------2-----2----2--|--0-------0-----0----0--|


  Q    E  E  E  E  E  E     E  E  E  E  E  E  E  E     Q    E  E.  S Q    E   
-------------------------|--------------------------|------------------------|
-------------------------|--------------------------|------------------------|
--3----3--3--3--3--3--3--|--3--3--3--3--3--3--3--3--|------------------------|
-------------------------|--------------------------|--2-------2-----2----2--|


  Q    E  E.  S Q    E     Q    E  E  E  E  E  E     E  E  E  E  E  E  E  E   
------------------------|-------------------------|--------------------------|
------------------------|-------------------------|--------------------------|
------------------------|--3----3--3--3--3--3--3--|--3--3--3--3--3--3--3--3--|
--0-------0-----0----0--|-------------------------|--------------------------|


  Q    E  E.  S Q    E     Q    E  E.  S Q    E     W                 
------------------------|------------------------|-------------------|
------------------------|------------------------|-------------------|
------------------------|------------------------|--3----------------|
--2-------2-----2----2--|--0-------0-----0----0--|-------------------|


  W                   W                   W                   W                 
-------------------|-------------------|-------------------|-------------------|
-------------------|-------------------|-------------------|-------------------|
--L----------------|--7----------------|--5----------------|--3----------------|
-------------------|-------------------|-------------------|-------------------|


                                                     |----3----|     
  H        E  Q.        W                   H        Q    Q    Q     
---------------------|-------------------|--------------------------|
---------------------|-------------------|--------------------------|
--L--------3--5------|--7----------------|--5--------L----2----2----|
---------------------|-------------------|--------------------------|


  W                   H        E  Q.        W                 
-------------------|---------------------|-------------------|
-------------------|---------------------|-------------------|
--3----------------|--L--------L---------|-------------------|
-------------------|--------------0------|--2----------------|


  W                   W                   H        E  Q.      
-------------------|-------------------|---------------------|
-------------------|-------------------|---------------------|
--5----------------|--3----------------|--L--------L--5------|
-------------------|-------------------|---------------------|


  W                   H        H           W                 
-------------------|--------------------|-------------------|
-------------------|--5-----------------|-------------------|
--7----------------|-----------5--------|--3----------------|
-------------------|--------------------|-------------------|


  W                   E  E  E  E  E  E  E  E     E  E  E  E  E  E  E  E   
-------------------|--------------------------|--------------------------|
-------------------|--------------------------|--------------------------|
--L----------------|--------------------------|--------------------------|
-------------------|--2--2--2--2--2--2--2--2--|--0--0--0--0--0--0--0--0--|


  E  E  E  E  E  E  E  E     E  E  E  E  E  E  E  E   
--------------------------|--------------------------|
--------------------------|--------------------------|
--3--3--3--3--3--3--3--3--|--3--3--3--3--3--3--3--3--|
--------------------------|--------------------------|


  E  E  E  E  E  E  E  E     E  E  E  E  E  E  E  E   
--------------------------|--------------------------|
--------------------------|--------------------------|
--------------------------|--------------------------|
--2--2--2--2--2--2--2--2--|--0--0--0--0--0--0--0--0--|


  E  E  E  E  E  E  E  E     E  E  E  E  E  E  E  E   
--------------------------|--------------------------|
--------------------------|--------------------------|
--3--3--3--3--3--3--3--3--|--3--3--3--3--3--3--3--3--|
--------------------------|--------------------------|


  E  E  E  E  E  E  E  E     E  E  E  E  E  E  E  E   
--------------------------|--------------------------|
--------------------------|--------------------------|
--------------------------|--------------------------|
--2--2--2--2--2--2--2--2--|--0--0--0--0--0--0--0--0--|


  E  E  E  E  E  E  E  E     E  E  E  E  E  E  E  E   
--------------------------|--------------------------|
--------------------------|--------------------------|
--3--3--3--3--3--3--3--3--|--3--3--3--3--3--3--3--3--|
--------------------------|--------------------------|


  E  E  E  E  E  E  E  E     E  E  E  E  E  E  E  E   
--------------------------|--------------------------|
--------------------------|--------------------------|
--------------------------|--------------------------|
--2--2--2--2--2--2--2--2--|--0--0--0--0--0--0--0--0--|


  E  E  E  E  E  E  E  E     E  E  E  E  E  E  E  E   
--------------------------|--------------------------|
--------------------------|--------------------------|
--3--3--3--3--3--3--3--3--|--3--3--3--3--3--3--3--3--|
--------------------------|--------------------------|


  E  E  E  E  E  E  E  E     E  E  E  E  E  E  E  E   
--------------------------|--------------------------|
--------------------------|--------------------------|
--------------------------|--------------------------|
--2--2--2--2--2--2--2--2--|--0--0--0--0--0--0--0--0--|


  E  E  E  E  E  E  E  E     E  E  E  E  E  E  E  E   
--------------------------|--------------------------|
--------------------------|--------------------------|
--3--3--3--3--3--3--3--3--|--3--3--3--3--3--3--3--3--|
--------------------------|--------------------------|


  E  E  E  E  E  E  E  E     E  E  E  E  E  E  E  E   
--------------------------|--------------------------|
--------------------------|--------------------------|
--------------------------|--------------------------|
--2--2--2--2--2--2--2--2--|--0--0--0--0--0--0--0--0--|


  E  E  E  E  E  E  E  E     E  E  E  E  E  E  E  E   
--------------------------|--------------------------|
--------------------------|--------------------------|
--3--3--3--3--3--3--3--3--|--3--3--3--3--3--3--3--3--|
--------------------------|--------------------------|


  E  E  E  E  E  E  E  E     E  E  E  E  E  E  E  E   
--------------------------|--------------------------|
--------------------------|--------------------------|
--------------------------|--------------------------|
--2--2--2--2--2--2--2--2--|--0--0--0--0--0--0--0--0--|


  E  E  E  E  E  E  E  E     E  E  E  E  E  E  E  E   
--------------------------|--------------------------|
--------------------------|--------------------------|
--3--3--3--3--3--3--3--3--|--3--3--3--3--3--3--3--3--|
--------------------------|--------------------------|


  E  E  E  E  E  E  E  E     E  E  E  E  E  E  E  E   
--------------------------|--------------------------|
--------------------------|--------------------------|
--------------------------|--------------------------|
--2--2--2--2--2--2--2--2--|--0--0--0--0--0--0--0--0--|


  E  E  E  E  E  E  E  E     E  E  E  E  E  E  E  E   
--------------------------|--------------------------|
--------------------------|--------------------------|
--3--3--3--3--3--3--3--3--|--3--3--3--3--3--3--3--3--|
--------------------------|--------------------------|


  E  E  E  E  E  E  E  E     E  E  E  E  E  E  E  E   
--------------------------|--------------------------|
--------------------------|--------------------------|
--------------------------|--------------------------|
--2--2--2--2--2--2--2--2--|--0--0--0--0--0--0--0--0--|


  E  E  E  E  E  E  E  E     E  E  E  E  E  E  E  E   
--------------------------|--------------------------|
--------------------------|--------------------------|
--3--3--3--3--3--3--3--3--|--3--3--3--3--3--3--3--3--|
--------------------------|--------------------------|


  E  E  E  E  E  E  E  E     E  E  E  E  E  E  E  E   
--------------------------|--------------------------|
--------------------------|--------------------------|
--------------------------|--------------------------|
--2--2--2--2--2--2--2--2--|--0--0--0--0--0--0--0--0--|


  E  E  E  E  E  E  E  E     E  E  E  E  E  E  E  E   
--------------------------|--------------------------|
--------------------------|--------------------------|
--3--3--3--3--3--3--3--3--|--3--3--3--3--3--3--3--3--|
--------------------------|--------------------------|


  E  E  E  E  E  E  E  E     E  E  E  E  E  E  E  E   
--------------------------|--------------------------|
--------------------------|--------------------------|
--------------------------|--------------------------|
--2--2--2--2--2--2--2--2--|--0--0--0--0--0--0--0--0--|


  E  E  E  E  E  E  E  E     E  E  E  E  E  E  E  E   
--------------------------|--------------------------|
--------------------------|--------------------------|
--3--3--3--3--3--3--3--3--|--3--3--3--3--3--3--3--3--|
--------------------------|--------------------------|


  E  E  E  E  E  E  E  E     E  E  E  E  E  E  E  E     H.           Q     
--------------------------|--------------------------|--------------------|
--------------------------|--------------------------|--------------------|
--------------------------|--------------------------|--3------------3----|
--2--2--2--2--2--2--2--2--|--0--0--0--0--0--0--0--0--|--------------------|


  W                   W                   W                  
-------------------|-------------------|-------------------||
-------------------|-------------------|-------------------||
--L----------------|--L----------------|--L----------------||
-------------------|-------------------|-------------------||




Duration Legend
---------------
W - whole
H - half
Q - quarter
E - 8th
S - 16th
T - 32nd
X - 64th
. - note dotted
|-n-|  - n-tuplets


Tablature Legend
----------------
L - tied note
x - dead note
g - grace note
(n) - ghost note
> - accentuded note
NH - natural harmonic
AH - artificial harmonic
TH - tapped harmonic
SH - semi harmonic
PH - pitch harmonic
h - hammer on
p - pull off
b - bend
br - bendRelease
pb - preBend
pbr - preBendRelease
brb - bendReleaseBend
\n/ - tremolo bar dip
\n - tremolo bar dive
-/n - tremolo bar Release up
/n\ - tremolo bar inverted dip
/n - tremolo bar return
-\n - tremolo bar Release down
S - shift slide
s - legato slide
/ -  slide into from below or out of upwards
\ -  slide into from above or out of downwards
~ - vibrato
W - wide vibrato
tr - trill
TP - tremolo picking
T - tapping
S - slap
P - pop
< - fade in
^ - brush up
v - brush down





Comments


Popular Haste The Day tabs & chords
American Love Bass Tabs
Last Goodbye Bass Tabs
Needles 2 Bass Tabs
Autumn 2 Chords
American Love 2 Tabs
Blue 42 2 Tabs
Labyrinth Tabs
Substance 1 Tabs
Travesty 1 Tabs
When Everything Falls Intro Tabs


Song lyrics



↑ Back to top | Tablatures and chords are parodies/interpretations of the original songs. You may use it for private study, scholarship, research or language learning purposes only
© 2014 AZChords.com Contact us | Privacy policy | DMCA | Add/correct tabs | Request tabs | Top 50 tabs