>
 >
68

68 Bass Tabs

Haste The Day - 68 chords, tabs, tablatures, lyrics

Guitar lessons | Add/correct | Request | Top 50 tabs Artists:  A B C D E F G H I J K L M N O P Q R S T U V W X Y Z 0-9

68 Bass Tabs – Haste The Day

CD, Sheet music, Poster

Do you like 68? Share with your friends now
Bass TabsTabsTabs v2
Haste the Day

Bass Tab

Tuning: Drop C
-C G C F-

VERSE: “I am the one you will call the destroyer…"
F|---------------------------------------------------------------|
C|---------------------------------------------------------------|
G|-8---------8--------7------7-------4-------5--------4-----5----|
C|------00------00------00-----00------00------00-------00-------| x2

“I am my own disease…”
F|---------------------------------------------------------|
C|---------------------------------------------------------|
G|----------5-5-5---------5-5-5-0-0-0-8-8-8-0-0-0-7-7-7----|
C|-3-3-3----------3-3-3------------------------------------|

“You sit on your throne of compassion…”
F|------------------------------------------------------------|
C|------------------------------------------------------------|
G|-8--------8-------7-------7------4-------5-------4-------5--|
C|-----00-----00------00------00-----00------00------00-------|

F|-----------------------------------------------------------|
C|-----------------------------------------------------------|
G|-----------------------------------------------------------|
C|-10-00---10-00---8-00---8-00---6-00---7-00---6-00---7-00---|

“I am my own disease…”

F|--------------------------------------------------------|
C|--------------------------------------------------------|
G|----------5-5-5---------5-5-5-0-0-0-8-8-8-0-0-0-7-7-7---|
C|-3-3-3----------3-3-3-----------------------------------|

CHORUS: “we came this far to tell the good to…”
F|----------------------------------------------------------------|
C|----------------------------------------------------------------|
G|----------------------------------------------------------------|
C|-8-[x24]------0-0-0-0-0-0-2-2-2-2-2-2-3-3-3-3-3-3-7-7-7-7-7-7---|

“See your eyes…”
F|----------------------------------------------------------------------|
C|----------------------------------------------------------------------|
G|----------------------------------------------------------------------|
C|-8-[x24]------0-0-0-0-0-0-2-2-2-2-2-2-3-3-3-3-3-3-10-10-10-10-10-10---|

“Me…”
F|--------------------|
C|--------------------|
G|--------------------|
C|-8-[x16]------7~----|

VERSE 2: “What? Is this your only obsession...?”
F|--------------------------------------------------------------|
C|--------------------------------------------------------------|
G|-8-------8--------7------7-------4-------5--------4-------5---|
C|----00------00------00-----00------00------00-------00--------| x2

“I am my own disease…”
F|---------------------------------------------------------|
C|---------------------------------------------------------|
G|----------5-5-5---------5-5-5-0-0-0-8-8-8-0-0-0-7-7-7----|
C|-3-3-3----------3-3-3------------------------------------|

“You, the god of the broken and wretched…”
F|---------------------------------------------------------------|
C|---------------------------------------------------------------|
G|-8--------8-------7-------7-------4-------5--------4-------5---|
C|-----00-----00------00------00-----00------00------00----------|

F|-----------------------------------------------------------|
C|-----------------------------------------------------------|
G|-----------------------------------------------------------|
C|-10-00---10-00---8-00---8-00---6-00---7-00---6-00---7-00---|

“I am my own, di, sease…”
F|----------------------------------------------------|
C|----------------------------------------------------|
G|----------5-5-5---------5-5-5-0-0-0-0-0-0-0-0-0-0---|
C|-3-3-3-----------3-3-3------------------------------|

BREAKDOWN 1:
F|---------------------------------------------------|
C|---------------------------------------------------|
G|---------------------------------------------------|
C|-000-0-0-0-0-000-0-0-0-0-000-0-0-0-0-000-0-0-0-0---| x5

F|-------------------------------------------------------|
C|-------------------------------------------------------|
G|-------------------------------------------------------|
C|-000-0-0-0-0-000-0-0-0-0-000-0-0-0-0---0-----0-----0---| x5

I carry the weight of this burden…”   [not too sure about the notes, but positive about 
rhythm]
F|-------------------------------------|
C|-------------------------------------|
G|-------------------------------------|
C|-0-0---00-0-0---00-0-0---00-000000---|

F|-------------------------------------------------------------|
C|-------------------------------------------------------------|
G|-------------------------------------------------------------|
C|-8-8---88-8-8---88-8-8---88-888888-77777777777777777777777---|

F|----------------------------------------|
C|----------------------------------------|
G|----------------------------------------|
C|-0-0---00-0-0---00-0-0---00---0---0---0-|

F|-------------------------------------|
C|-------------------------------------|
G|-------------------------------------|
C|-0-0---00-0-0---00-0-0---00-000000---|

F|-----------------------------------------------------------------------|
C|-----------------------------------------------------------------------|
G|-----------------------------------------------------------------------|
C|-8-8---88-8-8---88-8-8---88-888888-7-7---77-7-7---77-7-7---77-777777---|

F|----------------------------------------|
C|----------------------------------------|
G|----------------------------------------|
C|-0-0---00-0-0---00-0-0---00---0---0---0-|

CHORUS: “we came this far to tell the good to…”
F|---------------------------------------------------------|
C|---------------------------------------------------------|
G|---------------------------------------------------------|
C|-8~~---0-0-0-0-0-0-2-2-2-2-2-2-3-3-3-3-3-3-7-7-7-7-7-7---|

“See your eyes…”
F|----------------------------------------------------------------------|
C|----------------------------------------------------------------------|
G|----------------------------------------------------------------------|
C|-8-[x24]------0-0-0-0-0-0-2-2-2-2-2-2-3-3-3-3-3-3-10-10-10-10-10-10---|

“we came this far to tell the good to…”
F|----------------------------------------------------------------|
C|----------------------------------------------------------------|
G|----------------------------------------------------------------|
C|-8-[x24]------0-0-0-0-0-0-2-2-2-2-2-2-3-3-3-3-3-3-7-7-7-7-7-7---|

“See your eyes…”
F|----------------------------------------------------------------------|
C|----------------------------------------------------------------------|
G|----------------------------------------------------------------------|
C|-8-[x24]------0-0-0-0-0-0-2-2-2-2-2-2-3-3-3-3-3-3-10-10-10-10-10-10---|


“Me…”
F|--------------------|
C|--------------------|
G|--------------------|
C|-8-[x16]------7~----|

BREAKDOWN 2/END: “we will fall to ruin if we don’t bury disguises…”
F|------------------------------------------------------------|
C|------------------------------------------------------------|
G|------------------------------------------------------------|
C|-0000000-----0000--0000-0-----0000--0000-0-----0000--0000---|

F|---------------|
C|---------------|
G|-3-------3-3-3-|
C|----4-0--------|


F|------------------------------------------------------------------------|
C|------------------------------------------------------------------------|
G|---------------------------------------------------------3---------4~---|
C|-0000000-----0000--0000-0-----0000--0000-0-----0000--000-----4--0-------|

“I am my own disease…”
F|---------------------------------------------------------------------|
C|---------------------------------------------------------------------|
G----------------------------------------------------3-------3--3--3---|
C|-0-00-00---00-00-0-00-00---000000-0-00-00---00-00-----4--0-----------|

F|-------------------------------------------------------------------|
C|-------------------------------------------------------------------|
G|--------------------------------------------------------------4~---|
C|-0-00-00---00-00-0-00-00---0000000-00-00---00-00--0---0---0--------|

sick song

enjoi :]





Comments


Popular Haste The Day tabs & chords
American Love 1 Bass Tabs
Breaking My Own Heart Bass Tabs
Long Way Down Bass Tabs
All I Have Tabs
American Love 2 Tabs
Blue 42 Tabs
Janet's Planet Tabs
PorcelainIntro Tabs
Song Of Faith 1 Tabs
Travesty Tabs


Song lyrics



↑ Back to top | Tablatures and chords are parodies/interpretations of the original songs. You may use it for private study, scholarship, research or language learning purposes only
© 2014 AZChords.com Contact us | Privacy policy | DMCA | Add/correct tabs | Request tabs | Top 50 tabs