» » »

Haste The Day, 68 Tabs (ver.2)

Artists:  A B C D E F G H I J K L M N O P Q R S T U V W X Y Z # 

68 Tabs (ver.2)

Haste The Day Tabs
 Rating:
4.2/5 (5 votes)
68 lessons Tabs too difficult? Try these video lessons and learn fast
1
                yess first one to tab this song!!!
its one hundred percent.


VERSE:
guitar 1
D|-----------------------------------------------------------------------------|
A|-----------------------------------------------------------------------------|
F|-----------------------------------------------------------------------------|
C|-7-----7-----5-----5-----2-----3-----2-----3---------------------------------|
G|-----------------------------------------------------------------------------|
C|---0-0---0-0---0-0---0-0---0-0---0-0---0-0---0-0-----------------------------| x2
pm   . .   . .   . .   . .   . .   . .   . .   . .

guitar 2
D|-----------------------------------------------------------------------------|
A|-----------------------------------------------------------------------------|
F|-----------------------------------------------------------------------------|
C|-----------------------------------------------------------------------------|
G|-8-----8-----7-----7-----4-----5-----4-----5---------------------------------|
C|---0-0---0-0---0-0---0-0---0-0---0-0---0-0-----------------------------------| x2
pm   . .   . .   . .   . .   . .   . .   . .

then both guitars
D|-----------------------------------------------------------------------------|
A|-----------------------------------------------------------------------------|
F|-----------------------------------------------------------------------------|
C|-----------------------------------------------------------------------------|
G|-------5-5-5-------5-5-5-0-0-0-8-8-8-0-0-0-7-7-7-----------------------------|
C|-3-3-3-------3-3-3-----------------------------------------------------------|

guitar 1
D|-----------------------------------------------------------------------------|
A|-----------------------------------------------------------------------------|
F|-----------------------------------------------------------------------------|
C|-7-----7-----5-----5-----2-----3-----2-----3---------------------------------|
G|-----------------------------------------------------------------------------|
C|---0-0---0-0---0-0---0-0---0-0---0-0---0-0---0-0-----------------------------| x2
pm   . .   . .   . .   . .   . .   . .   . .   . .

guitar 2
D|-----------------------------------------------------------------------------|
A|-----------------------------------------------------------------------------|
F|-----------------------------------------------------------------------------|
C|-----------------------------------------------------------------------------|
G|-8-----8-----7-----7-----4-----5-----4-----5---------------------------------|
C|---0-0---0-0---0-0---0-0---0-0---0-0---0-0-----------------------------------| x1
pm   . .   . .   . .   . .   . .   . .   . .

D|-------------------------------------------------------------------------------|
A|-------------------------------------------------------------------------------|
F|-------------------------------------------------------------------------------|
C|-10-----10-----8-----8-----6-----7-----6-----7---------------------------------|
G|-------------------------------------------------------------------------------|
C|----0-0----0-0---0-0---0-0---0-0---0-0---0-0---0-0-----------------------------| x1
pm    . .    . .   . .   . .   . .   . .   . .   . .

both guitars again
D|-----------------------------------------------------------------------------|
A|-----------------------------------------------------------------------------|
F|-----------------------------------------------------------------------------|
C|-----------------------------------------------------------------------------|
G|-------5-5-5-------5-5-5-0-0-0-8-8-8-0-0-0-7-7-7-----------------------------|
C|-3-3-3-------3-3-3-----------------------------------------------------------|

CHORUS:
both guitars
D|-----------------------------------------------------------------------------|
A|-----------------------------------------------------------------------------|
F|-----------------------------------------------------------------------------|
C|-8---------------------------------------------------------------------------|
G|-8-x24-----------------------------------------------------------------------|
C|-8-------0-0-0-0-0-0-2-2-2-2-2-2-3-3-3-3-3-3-7-7-7-7-7-7---------------------|

D|-----------------------------------------------------------------------------|
A|-----------------------------------------------------------------------------|
F|-----------------------------------------------------------------------------|
C|-8---------------------------------------------------------------------------|
G|-8-x24-----------------------------------------------------------------------|
C|-8-------0-0-0-0-0-0-2-2-2-2-2-2-3-3-3-3-3-3-10-10-10-10-10-10---------------|

D|-----------------------------------------------------------------------------|
A|-----------------------------------------------------------------------------|
F|-----------------------------------------------------------------------------|
C|-8-------7~------------------------------------------------------------------|
G|-8-x16---7~------------------------------------------------------------------|
C|-8-------7~------------------------------------------------------------------|

VERSE again
ends like this
D|-----------------------------------------------------------------------------|
A|-----------------------------------------------------------------------------|
F|-----------------------------------------------------------------------------|
C|-----------------------------------------------------------------------------|
G|-------5-5-5-------5-5-5-0-0-0-0-0-0-0-0-0-0---------------------------------|
C|-3-3-3-------3-3-3-----------------------------------------------------------|

BREAKDOWN 1:
D|-----------------------------------------------------------------------------|
A|-----------------------------------------------------------------------------|
F|-----------------------------------------------------------------------------|
C|-----------------------------------------------------------------------------|
G|-000-0-0-0-0-000-0-0-0-0-000-0-0-0-0-000-0-0-0-0-----------------------------|
C|-000-0-0-0-0-000-0-0-0-0-000-0-0-0-0-000-0-0-0-0-----------------------------| x5
pm ... . . . . ... . . . . ... . . . . ... . . . .

after 2 times lead guitar goes
D|-----------------------------------------------------------------------------|
A|-----------------------------------------------------------------------------|
F|------------------------------------6~---------------------------------------|
C|----7~----6~--------------7~----6~-------------------------------------------|
G|--------------7~----------8~----7~--4~---<
            
Submit corrections

comments powered by Disqus
↑ Back to top | Haste The Day Tabs for 68. Lyrics for acoustic guitar and electric guitar. 1 Tablatures and chords are parodies/interpretations of the original songs. You may use it for private study, scholarship, research or language learning purposes only