» » »

Haste The Day, 68 Tabs (ver.1)

Artists:  A B C D E F G H I J K L M N O P Q R S T U V W X Y Z # 

68 Tabs (ver.1)

Haste The Day Tabs
 Rating:
4/5 (7 votes)
68 lessons Tabs too difficult? Try these video lessons and learn fast
1
                

VERSE:
guitar 1
D|--------------------------------------------------------------------------|
A|--------------------------------------------------------------------------|
F|--------------------------------------------------------------------------|
C|-7-----7-----5-----5-----2-----3-----2-----3------------------------------|
G|--------------------------------------------------------------------------|
C|---0-0---0-0---0-0---0-0---0-0---0-0---0-0---0-0--------------------------|
pm   . .   . .   . .   . .   . .   . .   . .   . .

 x2

guitar 2
D|--------------------------------------------------------------------------|
A|--------------------------------------------------------------------------|
F|--------------------------------------------------------------------------|
C|--------------------------------------------------------------------------|
G|-8-----8-----7-----7-----4-----5-----4-----5------------------------------|
C|---0-0---0-0---0-0---0-0---0-0---0-0---0-0--------------------------------|
pm   . .   . .   . .   . .   . .   . .   . .

 x2

then both guitars
D|--------------------------------------------------------------------------|
A|--------------------------------------------------------------------------|
F|--------------------------------------------------------------------------|
C|--------------------------------------------------------------------------|
G|-------5-5-5-------5-5-5-0-0-0-8-8-8-0-0-0-7-7-7--------------------------|
C|-3-3-3-------3-3-3--------------------------------------------------------|

guitar 1
D|--------------------------------------------------------------------------|
A|--------------------------------------------------------------------------|
F|--------------------------------------------------------------------------|
C|-7-----7-----5-----5-----2-----3-----2-----3------------------------------|
G|--------------------------------------------------------------------------|
C|---0-0---0-0---0-0---0-0---0-0---0-0---0-0---0-0--------------------------|
pm   . .   . .   . .   . .   . .   . .   . .   . .

 x2

guitar 2
D|--------------------------------------------------------------------------|
A|--------------------------------------------------------------------------|
F|--------------------------------------------------------------------------|
C|--------------------------------------------------------------------------|
G|-8-----8-----7-----7-----4-----5-----4-----5------------------------------|
C|---0-0---0-0---0-0---0-0---0-0---0-0---0-0--------------------------------|
pm   . .   . .   . .   . .   . .   . .   . .


D|--------------------------------------------------------------------------|
A|--------------------------------------------------------------------------|
F|--------------------------------------------------------------------------|
C|-10-----10-----8-----8-----6-----7-----6-----7----------------------------|
G|--------------------------------------------------------------------------|
C|----0-0----0-0---0-0---0-0---0-0---0-0---0-0---0-0------------------------|
pm    . .    . .   . .   . .   . .   . .   . .   . .

both guitars again
D|--------------------------------------------------------------------------|
A|--------------------------------------------------------------------------|
F|--------------------------------------------------------------------------|
C|--------------------------------------------------------------------------|
G|-------5-5-5-------5-5-5-0-0-0-8-8-8-0-0-0-7-7-7--------------------------|
C|-3-3-3-------3-3-3--------------------------------------------------------|

CHORUS:
both guitars
D|--------------------------------------------------------------------------|
A|--------------------------------------------------------------------------|
F|--------------------------------------------------------------------------|
C|-8------------------------------------------------------------------------|
G|-8-x24--------------------------------------------------------------------|
C|-8-------0-0-0-0-0-0-2-2-2-2-2-2-3-3-3-3-3-3-7-7-7-7-7-7------------------|

D|--------------------------------------------------------------------------|
A|--------------------------------------------------------------------------|
F|--------------------------------------------------------------------------|
C|-8------------------------------------------------------------------------|
G|-8-x24--------------------------------------------------------------------|
C|-8-------0-0-0-0-0-0-2-2-2-2-2-2-3-3-3-3-3-3-10-10-10-10-10-10------------|

D|--------------------------------------------------------------------------|
A|--------------------------------------------------------------------------|
F|--------------------------------------------------------------------------|
C|-8-------7~---------------------------------------------------------------|
G|-8-x16---7~---------------------------------------------------------------|
C|-8-------7~---------------------------------------------------------------|

VERSE again
ends like this
D|--------------------------------------------------------------------------|
A|--------------------------------------------------------------------------|
F|--------------------------------------------------------------------------|
C|--------------------------------------------------------------------------|
G|-------5-5-5-------5-5-5-0-0-0-0-0-0-0-0-0-0------------------------------|
C|-3-3-3-------3-3-3--------------------------------------------------------|

BREAKDOWN 1:
D|--------------------------------------------------------------------------|
A|--------------------------------------------------------------------------|
F|--------------------------------------------------------------------------|
C|--------------------------------------------------------------------------|
G|-000-0-0-0-0-000-0-0-0-0-000-0-0-0-0-000-0-0-0-0--------------------------|
C|-000-0-0-0-0-000-0-0-0-0-000-0-0-0-0-000-0-0-0-0--------------------------|
pm ... . . . . ... . . . . ... . . . . ... . . . .
 x5

after 2 times lead guitar goes
D|----------------------------------------------------------------------------|
A|----------------------------------------------------------------------------|
F|------------------------------------6~--------------------------------------|
C|----7~----6~--------------7~----6~------------------------------------------|
G|--------------7~----------8~----7~--4~--------------------------------------|

"Bridge"
Lead guitar
D|------------------------------------14-14-14-|
A|-14-14-14-14-14-14-15-15-15-17-17-17---------|
F|---------------------------------------------|
C|---------------------------------------------|
G|---------------------------------------------|
C|---------------------------------------------|

D|---------------------------------------|
A|-17-17-17-14-14-14-15-15-15-14-14-14---|
F|------------------------------------16-|
C|---------------------------------------|
G|---------------------------------------|
C|---------------------------------------|

D|-----------|
A|-15-0-17-0-|
F|-----------|     4x
C|-----------|
G|-----------|
C|-----------|

D|------------------------------------14-14-14-|
A|-14-14-14-14-14-14-15-15-15-17-17-17---------|
F|---------------------------------------------|
C|---------------------------------------------|
G|---------------------------------------------|
C|---------------------------------------------|

D|---------17-17-17-14-14-14--------------------|
A|-17-17-17-----------------15-15-15-14-14-14---|
F|-------------------------------------------16-|
C|----------------------------------------------|
G|----------------------------------------------|
C|----------------------------------------------|

D|-----------|
A|-15-0-17-0-|
F|-----------|     4x
C|-----------|
G|-----------|
C|-----------|

Back to Chorus


That's all i got for this one. Wish u luck for the very ending. Even I'm still figuring 
out. Hope this tab is helpful. Enjoy!
            
Submit corrections

comments powered by Disqus
↑ Back to top | Haste The Day Tabs for 68. Lyrics for acoustic guitar and electric guitar. 1 Tablatures and chords are parodies/interpretations of the original songs. You may use it for private study, scholarship, research or language learning purposes only