>
 >
Scarborough Fair 1

Scarborough Fair 1 Guitar Tabs

Harry Sacksioni - Scarborough Fair 1 chords, tabs, tablatures, lyrics

Guitar lessons | Add/correct | Request | Top 50 tabs Artists:  A B C D E F G H I J K L M N O P Q R S T U V W X Y Z 0-9

Scarborough Fair 1 Guitar Tabs – Harry Sacksioni

CD, Sheet music, Poster

Do you like Scarborough Fair 1? Share with your friends now
TabsTabs v2
Capo: 2


 E |---8----0---|-----12------0---|----7-------7-|----5-----0---|
 B |----0-------|--------0--------|------0---0---|------0-------|
 G |------9---0-|---12-----12---0-|---7----7-----|---5----5---0-|
 D |------------|-----------------|--------------|--------------|
 A |-0----------|-0---------------|-0------------|-0------------|
 E |------------|-----------------|--------------|--------------|


 E |----8-------8-|-----12------0---|----7-------7-|----5-----0-|
 B |------0---0---|--------0--------|------0---0---|------0-----|
 G |---9----9-----|---12-----12---0-|---7----7-----|---5----5---|
 D |--------------|-----------------|--------------|------------|
 A |-0------------|-0---------------|-0------------|-0----------|
 E |--------------|-----------------|--------------|------------|

 E |-------------|-0---------0---|-------------|-------------0-|
 B |-------1---1-|---------1-----|-0-----1-0---|-------0-0h3---|
 G |-2---2---2---|-------0-----0-|-----0-----0-|-2---2---------|
 D |---2-----2---|---0h2---------|---0---3-0---|---2--------2--|
 A |-0-----------|-3---------3---|-------------|-0-------0-----|
 E |-------------|---------------|-3-----------|---------------|

 E |---------------|----0---3---|-5---0---3---|-0---2-------|
 B |-1p0-----0-1---|------------|-------------|---------3---|
 G |-------2-----2-|------0---0-|---5---0---0-|---0---2---2-|
 D |-----2---------|---2--------|-------------|-----0-------|
 A |-0-------------|-0------3---|-0-------2---|-3-----------|
 E |---------------|------------|-------------|-------------|

 E |-0-------0---|---------0---|-5-------5---|-3---------0---|
 B |-------0-----|-------0-----|-----5-------|---------1-----|
 G |-----2-----2-|-1---1-------|---5---5---0-|-------0-----0-|
 D |---2---------|---2---------|-------------|---0h2---------|
 A |-------------|-------------|-0-----------|-3-------------|
 E |-0-----------|-0-----------|-------------|---------------|

 E |-0-----------|---------------|--------3-3---|---------0---|
 B |---1-3---1---|-0------1--0---|------1---0---|-------1-----|
 G |--0----0---0-|------0------0-|-0h2-2------0-|-2---2-----0-|
 D |-------------|---0h2-----0---|----0---------|---2---------|
 A |-3---2---0---|---------------|--------------|-0-------3---|
 E |-------------|-3-------------|-3--------3---|-------------|

 E |---2h3p2--------|-------------|-----------0-|------------|
 B |-3------3---1---|-0-----1---0-|-----0-0h3---|-1p0----0-1-|
 G |----------2---0-|-----2---0---|----2-----2--|------2-----|
 D |-0--------------|---0---------|---2---------|----2-------|
 A |------------0---|-------------|-0-----0-----|-0--------0-|
 E |----------------|-3-------3---|-------------|------------|

 E |----8-------8-|-----12------0---|----7-------7-|----5-----0---|
 B |------0---0---|--------0--------|------0---0---|------0-------|
 G |---9----9-----|---12-----12---0-|---7----7-----|---5----5---0-|
 D |--------------|-----------------|--------------|--------------|
 A |-0------------|-0---------------|-0------------|-0------------|
 E |--------------|-----------------|--------------|--------------|

 E |----8-------8-|-----12------0---|----7-------7-|----5-----0---|
 B |------0---0---|--------0--------|------0---0---|------0-------|
 G |---9----9-----|---12-----12---0-|---7----7-----|---5----5-----|
 D |--------------|-----------------|--------------|--------------|
 A |-0------------|-0---------------|-0------------|-0------------|
 E |--------------|-----------------|--------------|--------------|

 E |---------------|-0----------0---|-------------|-------------0-|
 B |-------1-----1-|----------1-----|-0-----1-0---|-------0-0h3---|
 G |-2---2---2-----|-------0------0-|-----0-----0-|-2---2------2--|
 D |---2-----0h2---|---0h2----------|---0---2-0---|---2-----------|
 A |-0-------------|-3----------3---|-------------|-0-------0-----|
 E |---------------|----------------|-3-----------|---------------|

 E |---------------|----0---3---|-5---0---3---|-0---2-------|
 B |-1p0-----0-1---|------------|-------------|---------3---|
 G |-------2-----2-|------0---0-|---5---0---0-|---0---2---2-|
 D |-----2-----2---|---2--------|-------------|-----0-------|
 A |-0-------------|-0------3---|-0-------2---|-3-----------|
 E |---------------|------------|-------------|-------------|

 E |-0-------0---|---------0---|-5-------5---|-3---------0---|
 B |-------0-----|---0---0---0-|-----5-------|---------1-----|
 G |-----2-----2-|-1---2-------|---5---5---0-|-------0-----0-|
 D |---2---------|-------------|-------------|---0h2---------|
 A |-------------|-------------|-0-------2---|-3---------3---|
 E |-0-------0---|-0---2---4---|-------------|---------------|

 E |-0------------|---------3-3---|---------3-3---|-----------0---|
 B |----1-3---1---|-0-------1-0---|-------1---0---|---------1-----|
 G |--0-----0---0-|-------0-----0-|-0h2-2-------0-|-2-----2-----0-|
 D |--------------|---0h2-----0---|----0----------|---0h2---------|
 A |-3----2---0---|---------------|---------------|-0---------3---|
 E |--------------|-3-------------|-3---------3---|---------------|

 E |---2h3p2---------|-------------|-------------0-|--------------|
 B |-3-------3---1---|-0-----1---0-|-------0-0h3---|-1p0-----0-1--|
 G |-----------2---0-|-----2---0---|-----2------2--|-------2------|
 D |-0---------------|---0---------|---2-----------|-----2--------|
 A |-------------0---|-------------|-0-------0-----|-0---------0--|
 E |-----------------|-3-------3---|---------------|--------------|
                                                
 E |-5----12---10--|---8---7---5---3--|---------5----|
 B |-5----12---10--|---8---7---5---3--|-------0------|
 G |-5-------------|---------------5--|-----5--------|                    
 D |------10----9--|---7---5---0------|---3----------|
 A |---------------|------------------|-0------------|
 E |---------------|---------------0--|-------------0|...

Outro:

 E ||----8-------10--------12----0-------10-------8-----8------7----||
 B ||------0--------0--------0-----0-------0--------0-----0-----0---||
 G ||---9----9--------10------12----0-------10--------9----0-----7--||
 D ||---------------------------------------------------------------||
 A ||-0-------------------0---------------------0-------------------||
 E ||----------0-----------------------0---------------------0------||

 E ||----5-----5------------7----8------8--------10-----------------||
 B ||------0-----0------0----------0------0---------0---------------||
 G ||--------5-----5------7----------9------9---------10------------||
 D ||-------------------------------------------------------ETC...--||
 A ||-0-----------------------0-------------------------------------||
 E ||-----------------0------------------------0--------------------||   

                                                                    
Repeat and fade 





Comments


Popular Harry Sacksioni tabs & chords
Amulet Tabs
Blos Tabs
Borgo Migliorini Intro Tabs
Here Comes The Sun Tabs
Scarborough Fair Tabs
Uitgespeeld Tabs


Song lyrics



↑ Back to top | Tablatures and chords are parodies/interpretations of the original songs. You may use it for private study, scholarship, research or language learning purposes only
© 2014 AZChords.com Contact us | Privacy policy | DMCA | Add/correct tabs | Request tabs | Top 50 tabs