» » »

Harry Sacksioni, Scarborough Fair Tabs (ver.1)

Artists:  A B C D E F G H I J K L M N O P Q R S T U V W X Y Z # 

Scarborough Fair Tabs (ver.1)

Harry Sacksioni Tabs
 Rating:
4/5 (5 votes)
Scarborough Fair lessons Tabs too difficult? Try these video lessons and learn fast
1
                
Instrument: 6 String Guitar


Notes:
CAPO II

h   - hammer-on
p   - pull-off


 E |---8--------|-----12------0---|----7-------7-|----5-----0---|
 B |----0-------|--------0--------|------0---0---|------0-------|
 G |------9-9-0-|---12-----12---0-|---7----7-----|---5----5---0-|
 D |------------|-----------------|--------------|--------------|
 A |-0----------|-0---------------|-0------------|-0------------|
 E |------------|-----------------|--------------|--------------|


 E |----8-------8-|-----12------0---|----7-------7-|----5-----0-||
 B |------0---0---|--------0--------|------0---0---|------0-----||
 G |---9----9-----|---12-----12---0-|---7----7-----|---5----5---||
 D |--------------|-----------------|--------------|------------||
 A |-0------------|-0---------------|-0------------|-0----------||
 E |--------------|-----------------|--------------|------------||

 E |-------------|-0---------0---|-------------|-------------0-|
 B |-------1---1-|---------1-----|-0-----1-0---|-------0-0h3---|
 G |-2---2---2---|-------0-----0-|-----0-----0-|-2---2---------|
 D |---2-----2---|---0h2---------|---0---3-0---|---2--------2--|
 A |-0-----------|-3---------3---|-------------|-0-------0-----|
 E |-------------|---------------|-3-----------|---------------|

 E |---------------|----0---3---|-5-------3---|-0---2-------|
 B |-1p0-----0-1---|------------|-----5-------|---------3---|
 G |-------2-----2-|------0---0-|---5---0---0-|---0---2---2-|
 D |-----2---------|---2--------|-------------|-----0-------|
 A |-0-------------|-0------3---|-0-------2---|-3-----------|
 E |---------------|------------|-------------|-------------|

 E |-0-------0---|---------0---|-5-------5---|-3---------0---|
 B |-------0-----|-------0-----|-----5-------|---------1-----|
 G |-----2-----2-|-1---1-------|---5---5---0-|-------0-----0-|
 D |---2---------|---2---------|-------------|---0h2---------|
 A |-------------|-------------|-0-----------|-3-------------|
 E |-0-----------|-0-----------|-------------|---------------|

 E |-0-----------|---------------|--------3-3---|---------0---|
 B |---1-3---1---|-0------1--0---|------1---0---|-------1-----|
 G |--0----0---0-|------0------0-|-0h2-2------0-|-2---2-----0-|
 D |-------------|---0h2-----0---|----0---------|---2---------|
 A |-3---2---0---|---------------|--------------|-0-------3---|
 E |-------------|-3-------------|-3--------3---|-------------|

 E |---2h3p2--------|-------------|-----------0-|------------||
 B |-3------3---1---|-0-----1---0-|-----0-0h3---|-1p0----0-1-||
 G |----------2---0-|-----2---0---|----2-----2--|------2-----||
 D |-0--------------|---0---------|---2---------|----2-------||
 A |------------0---|-------------|-0-----0-----|-0----------||
 E |----------------|-3-------3---|-------------|------------||

 E |----8---------|-----12------0---|----7-------7-|----5-----0---|
 B |------0-------|--------0--------|------0---0---|------0-------|
 G |---9----9-9-0-|---12-----12---0-|---7----7-----|---5----5---0-|
 D |--------------|-----------------|--------------|--------------|
 A |-0------------|-0---------------|-0------------|-0------------|
 E |--------------|-----------------|--------------|--------------|

 E |----8-------8-|-----12------0---|----7-------7-|----5-----0---||
 B |------0---0---|--------0--------|------0---0---|------0-------||
 G |---9----9-----|---12-----12---0-|---7----7-----|---5----5-----||
 D |--------------|-----------------|--------------|--------------||
 A |-0------------|-0---------------|-0------------|-0------------||
 E |--------------|-----------------|--------------|--------------||

 E |---------------|-0----------0---|-------------|-------------0-|
 B |-------1-----1-|----------1-----|-0-----1-0---|-------0-0h3---|
 G |-2---2---2-----|-------0------0-|-----0-----0-|-2---2------2--|
 D |---2-----0h2---|---0h2----------|---0---2-0---|---2-----------|
 A |-0-------------|-3----------3---|-------------|-0-------0-----|
 E |---------------|----------------|-3-----------|---------------|

 E |---------------|----0---3---|-5-------3---|-0---2-------|
 B |-1p0-----0-1---|------------|-----5-------|---------3---|
 G |-------2-----2-|------0---0-|---5---0---0-|---0---2---2-|
 D |-----2-----2---|---2--------|-------------|-----0-------|
 A |-0-------------|-0------3---|-0-------2---|-3-----------|
 E |---------------|------------|-------------|-------------|

 E |-0-------0---|---------0---|-5-------5---|-3---------0---|
 B |-------0-----|---0---0---0-|-----5-------|---------1-----|
 G |-----2-----2-|-1---2-------|---5---5---0-|-------0-----0-|
 D |---2---------|-------------|-------------|---0h2---------|
 A |-------------|-------------|-0-------2---|-3---------3---|
 E |-0-------0---|-0---2---4---|-------------|---------------|

 E |-0------------|---------3-3---|---------3-3---|-----------0---|
 B |----1-3---1---|-0-------1-0---|-------1---0---|---------1-----|
 G |--0-----0---0-|-------0-----0-|-0h2-2-------0-|-2-----2-----0-|
 D |--------------|---0h2-----0---|----0----------|---0h2---------|
 A |-3----2---0---|---------------|---------------|-0---------3---|
 E |--------------|-3-------------|-3---------3---|---------------|

 E |---2h3p2---------|-------------|-------------0-|--------------||
 B |-3-------3---1---|-0-----1---0-|-------0-0h3---|-1p0-----0-1--||
 G |-----------2---0-|-----2---0---|-----2------2--|-------2------||
 D |-0---------------|---0---------|---2-----------|-----2--------||
 A |-------------0---|-------------|-0-------0-----|-0---------0--||
 E |-----------------|-3-------3---|---------------|--------------||
                                                
 E |-5------12----|-10------8----|-7---5---3--|-5^-----------|----8------10----|
 B |-5------12----|-10------8----|-7---5---3--|-0^-----------|------0------0---|
 G |-5------12----|-11------9----|-7---5---4--|-5^-----------|---9----9-----11-|
 D |-7------10----|-9-------7----|-5---0---2--|-3^-----------|-----------------|
 A |--------------|--------------|------------|-0^-----------|-0---------------|
 E |--------------|--------------|------------|------------0-|----------0------|

 E ||----12---0----10----|--8--8----7---|--5--5------7-|--8--8----10-----||
 B ||------0----0-----0--|---0---0---0--|---0---0--0---|---0---0----0----||
 G ||.------12---0----11-|----9---0---7-|----5---5--7--|----9---9----11-.||
 D ||.-------------------|--------------|--------------|----------------.||
 A ||-0------------------|-0------------|-0------------|-0---------------||
 E ||-------------0------|---------0----|---------0----|---------0-------||
   |                                                                      |
   |______________________ repeat and fade _______________________________|
            
Submit corrections

comments powered by Disqus
↑ Back to top | Harry Sacksioni Tabs for Scarborough Fair. Lyrics for acoustic guitar and electric guitar. 1 Tablatures and chords are parodies/interpretations of the original songs. You may use it for private study, scholarship, research or language learning purposes only