» » »

Harold Faltermeyer, Memories Tabs (ver.1)

Artists:  A B C D E F G H I J K L M N O P Q R S T U V W X Y Z # 

Memories Tabs (ver.1)

Harold Faltermeyer Tabs
 Rating:
4.3/5 (6 votes)
Memories lessons Tabs too difficult? Try these video lessons and learn fast
                HAROLD FALTERMEYER - MEMORIES


THIS IS THE SONG PLAYED WHEN GOOSE DIES AFTER EJECTING OUT OF THE F-14 
IN THE MOVIE "TOP GUN". ITS A GREAT SONG AND I COULDNT FIND A TAB FOR 
IT ANYWHERE SO I DECIDED TO DO MY OWN BY EAR...  IT COULD BE A LITTLE 
WRONG BUT PLAYED WITH THE SONG IN THE BACKGROUND SOUNDS PRETTY GOOD.


|--------------------------------------------------------------------------|
|---6--5-3-1---------------17-15-13--11--10-10--8-6---6-------12--12--10-8-|
|-2-----------3-3--2-3--12--------------------------2----9-8---------------|
|--------------------------------------------------------------------------|
|--------------------------------------------------------------------------|
|--------------------------------------------------------------------------|

|--------------------------------------------------------------------------|
|--------------------------------------------------------------------------|
|-11-11-9-9-8--9-11-12--14-16-7---9--11--12-12---14--16--7---9--11--12--12-|
|--------------------------------------------------------------------------|
|--------------------------------------------------------------------------|
|--------------------------------------------------------------------------|

|--------------------------------------------------------------------------|
|---6--5-3-1---------------17--13--11--10-10--8-6-----6-------12--12--10-8-|
|-2-----------3-3-2-3---12--------------------------2----9-8---------------|
|--------------------------------------------------------------------------|
|--------------------------------------------------------------------------|
|--------------------------------------------------------------------------|

|--------------------------------------------------------------------------|
|--------------------------------------------------------------------------|
|-11-11-9-9-8----9--11--12-12--11-11--9-9--8-8--6-8------------------------|
|--------------------------------------------------------------------------|
|--------------------------------------------------------------------------|
|--------------------------------------------------------------------------|

|--------------------------------------------------------------------------|
|---6--5-3-1---------------17-15-13--11--10-10--8-6---6-------12--12--10-8-|
|-2-----------3-3--2-3--12--------------------------2----9-8---------------|
|--------------------------------------------------------------------------|
|--------------------------------------------------------------------------|
|--------------------------------------------------------------------------|


|------------------------------------------------------|
|------------------------------------------------------|
|-11-11-9-9-8-----9--11--12--14-16-7-----9--11--12--12-|
|------------------------------------------------------|
|------------------------------------------------------|
|------------------------------------------------------|

EASY SONG TO PLAY - HAVE FUN
JEZ81
            
Submit corrections

comments powered by Disqus
↑ Back to top | Harold Faltermeyer Tabs for Memories. Lyrics for acoustic guitar and electric guitar. Tablatures and chords are parodies/interpretations of the original songs. You may use it for private study, scholarship, research or language learning purposes only