» » »

Harold Faltermeyer, Memories Tabs (ver.2)

Artists:  A B C D E F G H I J K L M N O P Q R S T U V W X Y Z # 

Memories Tabs (ver.2)

Harold Faltermeyer Tabs
Rating:
0/5 (0 votes)
Hard to play? Try these video lessons and learn fast.
                |--------------------------12-10-------------------------------------------|
|---6--5-------------------------13--11--10-10--8-----6-------12--12--10-8-|
|--------7-5------------12-----------------------10------9-8---------------|
|-7-----------8-8--7-8------------------------------7----------------------|
|--------------------------------------------------------------------------|
|--------------------------------------------------------------------------|

|--------------------------------------------------------------------------|
|-----------------------10-12--------------------10--12--------------------|
|-11-11-9-9-8--9-11-12------------9--11--12-12---------------9--11--12--12-|
|-----------------------------12-------------------------12----------------|
|--------------------------------------------------------------------------|
|--------------------------------------------------------------------------|

|--------------------------12----------------------------------------------|
|---6--5-----------------------13--11--10-10--8-------6-------12--12--10-8-|
|--------7-5------------12----------------------10-------9-8---------------|
|-7-----------8-8-7-8-------------------------------7----------------------|
|--------------------------------------------------------------------------|
|--------------------------------------------------------------------------|

|--------------------------------------------------------------------------|
|--------------------------------------------------------------------------|
|-11-11-9-9-8----9--11--12-12--11-11--9-9--8-8--6-8------------------------|
|--------------------------------------------------------------------------|
|--------------------------------------------------------------------------|
|--------------------------------------------------------------------------|

|--------------------------12-10-------------------------------------------|
|---6--5-------------------------13--11--10-10--8-----6-------12--12--10-8-|
|--------7-5------------12-----------------------10------9-8---------------|
|-7-----------8-8--7-8------------------------------7----------------------|
|--------------------------------------------------------------------------|
|--------------------------------------------------------------------------|


|------------------------------------------------------|
|----------------------------10-12---------------------|
|-11-11-9-9-8-----9--11--12--------------9--11--12--12-|
|----------------------------------12------------------|
|------------------------------------------------------|
|------------------------------------------------------|
            

comments powered by Disqus
↑ Back to top | Harold Faltermeyer Tabs for Memories. Lyrics for acoustic guitar and electric guitar. Tablatures and chords are parodies/interpretations of the original songs. You may use it for private study, scholarship, research or language learning purposes only