» » »

Hard-Fi, Hard To Beat Tabs (ver.1)

Artists:  A B C D E F G H I J K L M N O P Q R S T U V W X Y Z # 

Hard To Beat Tabs (ver.1)

Hard-Fi Tabs
 Rating:
3.6/5 (7 votes)
Hard To Beat lessons Tabs too difficult? Try these video lessons and learn fast
                -------------------------------------------------------------------------------
-------------------------------------------------------------------------------
Tuning: standard
 
INTRO/VERSE
   Gm     Cm7            Dm7
e|-10-10---8-8---|-8-8----10-10---|
B|-11-11---8-8---|-8-8----10-10---|
G|-12-12---8-8---|-8-8----10-10---|  X 8
D|-12-12---8-8---|-8-8----10-10---|
A|-10-10---X-X---|-X-X-----X--X---|
E|---------8-8---|-8-8----10-10---|

VERSE PART 2
Ah yeh girl you've got something I like....
   Cm7    Dm7  Cm7       Dm7  Cm7       Dm7  Cm7       Dm7
e|-8------10---8-|-------10---8-|-8------10--8-|-------10-------|
B|-8------10---8-|-------10---8-|-8------10--8-|-------10-------|
G|-8------10---8-|-------10---8-|-8------10--8-|-------10-------|
D|-8------10---8-|-------10---8-|-8------10--8-|-------10-------|
A|-X-------X---X-|--------X---X-|-X-------X--X-|--------X-------|
E|-8------10---8-|-------10---8-|-8------10--8-|-------10-------|

PRE-CHORUS
   Cm7              Dm7  Cm7                  Dm7  Cm7
e|-8--8-8-8-8-8-8---10---8-|-8--8-8-8-8-8-8---10---8-|
B|-8--8-8-8-8-8-8---10---8-|-8--8-8-8-8-8-8---10---8-|
G|-8--8-8-8-8-8-8---10---8-|-8--8-8-8-8-8-8---10---8-|
D|-------------------------|-------------------------|
A|-------------------------|-------------------------|
E|-------------------------|-------------------------|

e|-8--8-8-8-8-8-8---10---8-|-8--8-8-8-X-10-----10-|
B|-8--8-8-8-8-8-8---10---8-|-8--8-8-8-X-10-----11-|
G|-8--8-8-8-8-8-8---10---8-|-8--8-8-8-X-10-----12-|
D|-------------------------|-------------------13-|
A|-------------------------|----------------------|
E|-------------------------|----------------------|
 
e|---10-10-10-10-10-10---10---10-|
B|---11-11-11-11-11-11---10---11-|
G|---12-12-12-12-12-12---10---12-|
D|---13-13-13-13-13-13---12---13-| X 3
A|-------------------------------|
E|-------------------------------|

e|-10--10-10-10--13------8-|
B|-11--11-11-11--13------8-|
G|-12--12-12-12--14------8-|
D|-13--13-13-13--15------8-|
A|-----------------------X-|
E|-----------------------8-|

CHORUS
You know I love ya....
e|-8--8--8--8---10---8-|--|-8--8--8----10--10-----6-|
B|-8--8--8--8---10---8-|--|-8--8--8----10--10-----8-|
G|-8--8--8--8---10---8-|X3|-8--8--8----10--10-----7-|
D|-8--8--8--8---10---8-|--|-8--8--8----10--10-----8-|
A|-X--X--X--X----------|--|-----------------------6-|
E|-8--8--8--8---10---8-|--|-8--8--8----10--10-------|

e|--6--6--6---5---6-|--|--6--6---------------8-|
B|--8--8--8---6---8-|--|--8--8---------------8-|
G|--7--7--7---5---7-|--|--7--7---------------8-|
D|--8--8--8---7---8-|X3|--8--8--10---10--10--8-|
A|--6--6--6---5---6-|--|--6--6--8----8---8---X-|
E|------------------|--|---------------------8-|

BRIDGE
e|-8-----10-|----10----8-|----8---|-10---10-|
B|-8-----10-|----11----8-|----8---|-10---11-|
G|-8-----10-|----12----8-|----8---|-10---12-|
D|----------|------------|--------|---------| X2
A|----------|------------|--------|---------|
E|----------|------------|--------|---------|
 
THAT'S IT THIS IS THE DIFFERENT PARTS, YOU JUST HAVE TO PUT 'EM 
TOGETHER.
| /  slide up
| \  slide down
| h  hammer-on
| p  pull-off
| ~  vibrato
| +  harmonic
| x  Mute note
===============================================================================
            
Submit corrections

comments powered by Disqus
↑ Back to top | Hard-Fi Tabs for Hard To Beat. Lyrics for acoustic guitar and electric guitar. Tablatures and chords are parodies/interpretations of the original songs. You may use it for private study, scholarship, research or language learning purposes only