» » »

Hard To Beat Bass tabs (ver.2)

Artists:  A B C D E F G H I J K L M N O P Q R S T U V W X Y Z # 

Hard To Beat Bass tabs (ver.2)

Hard-Fi
Rating:
4/5 (3 votes)

Hard to play? Try these video lessons and learn fast.
                -------------------------------------------------------------------------------
			     Hard to beat - Hard fi
-------------------------------------------------------------------------------


Tuning: eadg standard

Main Riff
G|---------------------------------------------------------------------------|
D|--------------------------------4------------------------------------------|
A|------------2-4-4--2-4-4--2-4-6---6----------2-4-4-2-4-4-2-5-5-------------|
E|------4-4-4----------------------------4-4-4-------------------5-5-4-------|

Bridge
G|---------------------------------------------------------------------------|
D|---------------------------------------------------------------------------|
A|----3~---5-3~---5-3~---5-3-3/5---------------------------------------------|
E|---------------------------------------------------------------------------|

Pre Chorus
G|---------------------------------------------------------------------------|
D|---------------------------------------------------------------------------|
A|----3~---5-3~---5-3~--5-3-3/5---6~---5-6~---5-6~---5-6~-6/8----------------|
E|---------------------------------------------------------------------------|

Chorus
G|----------------------------------------------------------------------------------|
D|----------------------------------------------------------------------------------|
A|----33333-55--33333-55-33333-55-333-555-666666-55-666666-55--666666-55--6666-8888-|
E|----------------------------------------------------------------------------------|

Ending riff

G|---------------------------------------------------------------------------|
D|---------------------------------------------------------------------------|
A|---------------2/4-2/5-4-2-------------------------------------------------|
E|----4-4-4\-----------------------------------------------------------------|


| /  slide up
| \  slide down
| h  hammer-on
| p  pull-off
| ~  vibrato
| +  harmonic
| x  Mute note
===============================================================================
            
Hard to play? Try these video lessons and learn fast. | Correct




comments powered by Disqus
↑ Back to top | Tablatures and chords are parodies/interpretations of the original songs. You may use it for private study, scholarship, research or language learning purposes only