» » »

Hardcore Superstar, Shame Tabs (ver.1)

Artists:  A B C D E F G H I J K L M N O P Q R S T U V W X Y Z # 

Shame Tabs (ver.1)

Hardcore Superstar Tabs
Rating:
4/5 (1 vote)
Shame lessons Tabs too difficult? Try these video lessons and learn fast
                'SHAME' by Hardcore Superstar

Tuning: 1/2 down (D#3, G#3, C#4, F#4, A#4, D#5)

INTRO:	Bm G
	D  A
	Bm G
	D  A

INTRO:
|---------------------------------------------------------||
|----3p2-0------------------------------3-------2p0-----0-||
|-4-----------------0h2p0-------------2----4p2-------2----||
|----------4-0-0h2---------0h2--0--2----------------------||
|---------------------------------------------------------||
|---------------------------------------------------------||

|---------------------------------------------------------||
|----3p2-0---------------------------------3--------------||
|---------------------0h2p0-------------2----(2)----------||
|-4---------4-0--0h2---------0h2--0--2--------------------||
|---------------------------------------------------------||
|---------------------------------------------------------||


LEAD GUITAR DURING VERSE:
|---------------------------------------------------------||
|-7-----------7-----------------7----7----7---------------||
|---9-7-6-------7-6\7\6--6h7------7----7----7-6/7/6/7/6---||
|---------9------------------9----------------------------||
|---------------------------------------------------------|| (x2)
|---------------------------------------------------------||


Bm                             A
Feels like yesterday since she took my lust away
G              A          Bm
Nothing really matters anyway
Bm                                            A
Bloodsucker her name, she's envy wrapped in a frame
                              G                 A           Bm
Affection's no guarantee, say hello to her best friend Mrs. Jealousy


PRE-CHORUS:
D                          Em
She will never ever be the one that I want
D                          Em
She will never ever be the one that I adore
D                          Em
She will never ever be the one


CHORUS:
Bm G
D           A
Baptized by jealousy
Bm G
D                      A
It will always, always be the same
Bm G
D             A
Handcuffed by misery
Bm G
D                      A
It will always, always be the same


VERSE:
Bm                           A
Her legs are always crossed cuz she's taught to keep them crossed
    G              A            Bm
The new sensation, sexual gratification
Bm                                                   A
Let me her the sound of my smite when I land on your thigh
                           G
No shame on me, it's up to you
                      A        Bm
Let the redness be my point of view


PRE-CHORUS:
D                          Em
She will never ever be the one that I want
D                          Em
She will never ever be the one that I adore
D                          Em
She will never ever be the one


CHORUS:
Bm G
D           A
Baptized by jealousy
Bm G
D                      A
It will always, always be the same
Bm G
D             A
Handcuffed by misery
Bm G
D                      A
It will always, always be the same


SOLO: 	Bm G
	D  A
	Bm G
	D  A

|-------------------------------------------------------------||
|-7-8-7-----7-8-7-----7-8-7-----7-8-7-----7-8-7-----7-8-7-----||
|-----------------7---------9---------7-------------------7---||
|-------9---------------------------------------9-------------||
|-------------------------------------------------------------||
|-------------------------------------------------------------||

|-------------------------------------------------------------||
|-7-8-7------7-8-7-----7-8-7-----7-8-7-----7-8-7-10---7-8-7---||
|-------9--------------------7------------------------------7-||
|------------------9-------------------9----------------------||
|-------------------------------------------------------------||
|-------------------------------------------------------------||

|-------------------------------------------------------------||
|-7-8-7-----7-8-7----7-8-7-10-10\12-10-7-8-7------------------||
|-----------------7-------------------------------------------||
|-------9-----------------------------------------------------||
|-------------------------------------------------------------||
|-------------------------------------------------------------||


Bm G
D           A
Baptized by jealousy
Bm G
D                      A
It will always, always be the same
Bm G
D             A
Handcuffed by misery
Bm G
D                      A
It will always, always be the same


OUTRO:
Bm  G     D  A
Bm  G     D  A
Bm  G     D  A
Bm  G     D  A
            

comments powered by Disqus
↑ Back to top | Hardcore Superstar Tabs for Shame. Lyrics for acoustic guitar and electric guitar. Tablatures and chords are parodies/interpretations of the original songs. You may use it for private study, scholarship, research or language learning purposes only