>
 >
Moonshine

Moonshine Guitar Tabs

Hardcore Superstar - Moonshine chords, tabs, tablatures, lyrics

Guitar lessons | Add/correct | Request | Top 50 tabs Artists:  A B C D E F G H I J K L M N O P Q R S T U V W X Y Z 0-9

Moonshine Guitar Tabs – Hardcore Superstar

CD, Sheet music, Poster

Do you like Moonshine? Share with your friends now
TabsTabs v2

Tuning: D-A-D-G-B-e (Drop D)
Difficulty: Intermediate
Version 1.3


Decided to try tabbing this song, as I couldn't find any decent ones online.
I don't know if it's technically correct, but it sounds right.
This is my first tab, so bear that in mind. :)


Legend:
/ - slide
X - muted string
m - palm mute
p - pull off
h - hammer on
b - bend to
^ - pick while bent to
r - release bend to
~ - vibrato


It goes a little sumthin' like this...


--- INTRO ---
*clean or low gain*
e|-----------------------------------|
B|-----------------------------------|
G|-----------------------------------|
D|-----------------------------------|
A|-----------------------------------|
D|-----------------------------------| *drums*

e|-----------------------------------|
B|-----------------------------------|
G|-----------------------------------|
D|-----------------------------------|
A|-----------------------------------|
D|-----------------------------12/0--| 

e|-----------------------------------|
B|-----------------------------------|
G|-----------------------------------|
D|--------------------3---3---5---5--|
A|----0---0---2---3---1-XX1-XX3-XX3--|
D|----0-XX0-XX2-XX3------------------|

e|-----------------------------------|
B|-----------------------------------|
G|------------------------5----------|
D|--------------------3---5----------|
A|----0---0---2---3---1---3----------|
D|----0-XX0-XX2-XX3------------------|

*kick in the distortion! Hell yeah!*
e|-----------------------------------|
B|-----------------------------------|
G|-----------------------------------|
D|--------------------3---3-5-5-5-5--|
A|----0---0---2---3---1-XX1-3-3-3-3--|
D|----0-XX0-XX2-XX3------------------|

e|--------------------------------------------|
B|--------------------------------------------|
G|--77777777-9999-10101010-15151515 17171717--|
D|--------------------------------------------|
A|--55555555-7777-8-8-8-8--13131313-15151515--|
D|--------------------------------------------|

e|--------------------|
B|--------------------|
G|--9-9-9-9-9---------|
D|--9-9-9-9-9---------|
A|--7-7-7-7-7---12/0--|
D|--------------12/0--|


--- VERSE ---
e|----------------------------------|
B|----------------------------------|
G|----------------------------------|
D|---7--7---7--7---3--3--5-55-5-----|
A|---5--5---5--5---1--1--3-30-3-----|
D|--0--0---0--0---0--0---------3p2--| x2

e|----------------------------------|
B|----------------------------------|
G|----------------------------------|
D|---7--7---7--7---7--7---7--7------|
A|---5--5---5--5---5--5---5--5------|
D|--0--0---0--0---0--0---0--0-------| x2
    m  m   m  m   m  m   m  m

e|----------------------------------|
B|----------------------------------|
G|----------------------------------|
D|---7--7---7--7---3--3--5-55-5-----|
A|---5--5---5--5---1--1--3-30-3-----|
D|--0--0---0--0---0--0---------3p2--|

e|---------------------------------------------|
B|---------------------------------------------|
G|---------------------------------------------|
D|---7--7---7--7-------------------------------|
A|---5--5---5--5--------------------------3-2--|
D|--0--0---0--0---0--7-87~--7-87~--7-87~--3-2--|


--- CHORUS ---
e|-----------------------------------|
B|-----------------------------------|
G|-----------------------------------|
D|--------------------3---3---5---5--|
A|----0---0---2---3---1-XX1-XX3-XX3--|
D|----0-XX0-XX2-XX3------------------|

e|-----------------------------------|
B|-----------------------------------|
G|------------------------5----------|
D|--------------------3---5----------|
A|----0---0---2---3---1---3----------|
D|----0-XX0-XX2-XX3------------------|

e|-----------------------------------|
B|-----------------------------------|
G|-----------------------------------|
D|--------------------3---3-5-5-5-5--|
A|----0---0---2---3---1-XX1-3-3-3-3--|
D|----0-XX0-XX2-XX3------------------|

e|--------------------------------------------|
B|--------------------------------------------|
G|--77777777-9999-10101010-15151515 17171717--|
D|--------------------------------------------|
A|--55555555-7777-8-8-8-8--13131313-15151515--|
D|--------------------------------------------|


--- VERSE ---- (rhythm is same as before)
*I think lead plays this faintly in the background on the album,
just before the singing, listen yourself for the timing*
*note: it's a lick from the solo*
e|--13p10h13---13p10h13---13p10h13---13p10h13----|
B|----------10---------10---------10---------10--|
G|-----------------------------------------------|
D|-----------------------------------------------|
A|-----------------------------------------------|
D|-----------------------------------------------|

e|--10p6h10--10p6h10--12p8h12--12p8h12--------|
B|---------6--------6--------8--------8-------|
G|--------------------------------------------|
D|--------------------------------------------|
A|--------------------------------------------|
D|--------------------------------------12/0--|


--- CHORUS --- (same as before)


--- BREAKDOWN ----
e|----------------------------------|
B|----------------------------------|
G|----------------------------------|
D|---7--7---7--7---7--7---7--7------|
A|---5--5---5--5---5--5---5--5------|
D|--0--0---0--0---0--0---0--0-------|
    m  m   m  m   m  m   m  m

*kick in mod effect / lower volume slowly*
e|----------------------------------|
B|----------------------------------|
G|----------------------------------|
D|---7--7---7--7---7--7---7--7------|
A|---5--5---5--5---5--5---5--5------|
D|--0--0---0--0---0--0---0--0-------|
    m  m   m  m   m  m   m  m


--- SOLO --- rythm guitar
e|-------------------------------|
B|-------------------------------|
G|-------------------------------|
D|---7--7---7--7---3--3---5--5---|
A|---5--5---5--5---1--1---3--3---|
D|--0--0---0--0---0--0---0--0----|

e|----------------------------------|
B|----------------------------------|
G|----------------------------------|
D|---7--7---7--7---3--3--5-55-5-----|
A|---5--5---5--5---1--1--3-30-3-----|
D|--0--0---0--0---0--0---------3p2--| x2

e|-----------------------------------------------|
B|-----------------------------------------------|
G|-----------------------------------------------|
D|---7--7---7--7------------------------------0--|
A|---5--5---5--5--------------------------3-2-0--|
D|--0--0---0--0---0--7-87~--7-87~--7-87~--3-2-0--|


--- SOLO --- lead guitar
*if you have a wah-pedal, feel free to go nuts*
e|-----------------------------------|
B|-----------------------------------|
G|-----------------------------------|
D|-----------------------------------|
A|-----------------------------12/0--|
D|-----------------------------12/0--|

e|--------------------------------------10----------|
B|-----------------------------13-13b15-13^15~~r13--|
G|------------------------9-10----------------------|
D|--0------------------10---------------------------|
A|----------------10h12-----------------------------|
D|--------------------------------------------------|

e|-------10--------------------------|
B|--10h13--13p10-------------13b15~--|
G|---------------12b14r12-10---------|
D|-----------------------------------|
A|-----------------------------------|
D|-----------------------------------|

e|--13p10h13---13p10h13---13p10h13---13p10h13----|
B|----------10---------10---------10---------10--|
G|-----------------------------------------------|
D|-----------------------------------------------|
A|-----------------------------------------------|
D|-----------------------------------------------|

e|--10p6h10--10p6h10--12p8h12--12p8h12---| *pinky time*
B|---------6--------6--------8--------8--|
G|---------------------------------------|
D|---------------------------------------|
A|---------------------------------------|
D|---------------------------------------|

e|--13p10h13---13p10h13---13p10h13---13p10h13----17/--|
B|----------10---------10---------10---------10-------|
G|----------------------------------------------------|
D|----------------------------------------------------|
A|----------------------------------------------------|
D|----------------------------------------------------|

e|-----------12-13-12---------------------------------|
B|--/15-14-15----------13-12----14--------------------|
G|--------------------------15----14-15-12-14-15-14---|
D|----------------------------------------------------|
A|----------------------------------------------------|
D|----------------------------------------------------|

e|-------------------------------------------------------|
B|--14-15----14------------------------------------------|
G|--------15----14-15-12-14-14-15-12-14----12------------|
D|--------------------------------------15----14-15-12~--|
A|-------------------------------------------------------|
D|-------------------------------------------------------|


--- OUTRO ---
*clean or low gain*
e|-----------------------------------|
B|-----------------------------------|
G|-----------------------------------|
D|--------------------3---3---5---5--|
A|----0---0---2---3---1-XX1-XX3-XX3--|
D|----0-XX0-XX2-XX3------------------|

e|-----------------------------------|
B|-----------------------------------|
G|------------------------5----------|
D|--------------------3---5----------|
A|----0---0---2---3---1---3----------|
D|----0-XX0-XX2-XX3------------------|

*kick in the distortion again*
e|-----------------------------------|
B|-----------------------------------|
G|-----------------------------------|
D|--------------------3---3-5-5-5-5--|
A|----0---0---2---3---1-XX1-3-3-3-3--|
D|----0-XX0-XX2-XX3------------------|

e|--------------------------------------------|
B|--------------------------------------------|
G|--77777777-9999-10101010-15151515 17171717--|
D|--------------------------------------------|
A|--55555555-7777-8-8-8-8--13131313-15151515--|
D|--------------------------------------------|

e|-----------------------------------|
B|-----------------------------------|
G|------------------3-3-3-3-5-5-5-5--|
D|--0-0-0-0-2-2-3-3-3-3-3-3-5-5-5-5--|
A|--0-0-0-0-2-2-3-3-1-1-1-1-3-3-3-3--|
D|--0-0-0-0-2-2-3-3------------------| *rock out*

e|-----------------------------------|
B|-----------------------------------|
G|------------------3---3-3-5---5-5--|
D|--0-0-0-0-2-2-3-3-3---3-3-5---5-5--|
A|--0-0-0-0-2-2-3-3-1---1-1-3---3-3--|
D|--0-0-0-0-2-2-3-3------------------|

e|-----------------------------------|
B|-----------------------------------|
G|------------------3-3-3-3-5-5-5-5--|
D|--0-0-0-0-2-2-3-3-3-3-3-3-5-5-5-5--|
A|--0-0-0-0-2-2-3-3-1-1-1-1-3-3-3-3--|
D|--0-0-0-0-2-2-3-3------------------|

e|--------------------------------------------|
B|--------------------------------------------|
G|--77777777-9999-10101010-15151515 17171717--|
D|--------------------------------------------|
A|--55555555-7777-8-8-8-8--13131313-15151515--|
D|--------------------------------------------|

e|------------------------------------|
B|------------------------------------|
G|----7---7---7---7--3-3-3-3-5-5-5-5--|
D|----7---7---7---7--3-3-3-3-5-5-5-5--|
A|----5---5---5---5--1-1-1-1-3-3-3-3--|
D|--00--00--00--00--------------------|
    mm  mm  mm  mm

e|------------------------------------|
B|------------------------------------|
G|----7---7---7---7--3-3-3-3-5-5-5-5--|
D|----7---7---7---7--3-3-3-3-5-5-5-5--|
A|----5---5---5---5--1-1-1-1-3-3-3-3--|
D|--00--00--00--00--------------------|
    mm  mm  mm  mm

e|--------------------------------------|
B|--------------------------------------|
G|----7---7---7---7--9/109-7-7/9/7-7----|
D|----7---7---7---7---------------------|
A|----5---5---5---5--7/8-7-5-5/7/5-5----|
D|--00--00--00--00----------------------|
    mm  mm  mm  mm

e|-------------------------------------------------|
B|-------------------------------------------------|
G|-------------------------------------------------|
D|---7--7---7--7--------------------------------0--|
A|---5--5---5--5--------------------------3--2--0--|
D|--0--0---0--0---0--7-87~--7-87~--7-87~--3--2--0--|


Hope you enjoyed it! :)

Rock on~





Comments


Popular Hardcore Superstar tabs & chords
We Don't Celebrate Sundays Bass Tabs
We Don't Celebrate Sundays 2 Bass Tabs
Here Comes That Sick Bitch Again Chords
Mother's Love Chords
Dreamin' In A Casket 1 Tabs
Silence For The Peacefully Tabs
We Don't Celebrate Sundays Tabs
What Did I Do Tabs
Wild Boys Tabs
Wild Boyz Tabs


Song lyrics



↑ Back to top | Tablatures and chords are parodies/interpretations of the original songs. You may use it for private study, scholarship, research or language learning purposes only
© 2014 AZChords.com Contact us | Privacy policy | DMCA | Add/correct tabs | Request tabs | Top 50 tabs