» » »

Hans Zimmer, Hoist The Colours Tabs (ver.2)

Artists:  A B C D E F G H I J K L M N O P Q R S T U V W X Y Z # 

Hoist The Colours Tabs (ver.2)

Hans Zimmer Tabs
Rating:
5/5 (10 votes)
Hoist The Colours lessons Tabs too difficult? Try these video lessons and learn fast
                Hoist the Colours
Pirates of the Caribbean: At World's End

This is the basic melody, in the movie they change the key a bunch and embellish it in 
sorts of ways so have fun with it.

I tried to kind of show the timing by how I spaced the notes but you'll probably have to 
to a recording to get it exactly right.

(same melody for every verse)
e|----------------|----------------|----------------|
B|----------------|----------------|----------------|
G|----------------|----------------|----------------|
D|----------------|----------------|----------------|
A|3---3-----------|3---p2h3--------|3---3-6\5-3--5--|
E|--------3---3---|--------3---3---|----------------|
  Yo      ho       haul    together hoist the colours...

e|----------------|----------------|----------------||
B|----------------|----------------|----------------||
G|----------------|----------------|----------------||
D|----------------|----------------|----------------||
A|5---5-----------|5p4h5-----------|5/6\5----1--3---||
E|--------3---3---|--------3---3---|------3---------||
  Heave   Ho       Theives and...   Never shall we...
            
Submit corrections

comments powered by Disqus
↑ Back to top | Hans Zimmer Tabs for Hoist The Colours. Lyrics for acoustic guitar and electric guitar. Tablatures and chords are parodies/interpretations of the original songs. You may use it for private study, scholarship, research or language learning purposes only