» » »

Hanoi Rocks, Don't You Ever Leave Me Tabs (ver.2)

Artists:  A B C D E F G H I J K L M N O P Q R S T U V W X Y Z # 

Don't You Ever Leave Me Tabs (ver.2)

Hanoi Rocks Tabs
Rating:
4/5 (1 vote)
Hard to play? Try these video lessons and learn fast.
                #############################################
#HANOI ROCKS: DON'T YOU EVER LEAVE ME(McCoy)#
#From:"Two Steps From The Move"##############
################################

I just found this tab on a site, and thought it was pretty good,so i decided to put it here :P




Intro riff:
   D            Bm
|----2------|-----2---------|
|---3--3----|------3--------|
|--2----2-2-|---4---4--4---#|
|-0------0--|--4-----4-----#|
|-----------|-2-------------|
|-----------|---------------|
    D            A
The nights are wearing me down
|----0-------|---------------|
|---3--3-----|---------------|
|--2----2-2--|--....(etc)----|
|-0------0---|---------------|
|------------|---------------|
|------------|---------------|

|------------------|
|------------------|
|-9h11-9-----------|
|--------11r9s7-9--|
|------------------|
|------------------|

          Bm                      G
And it's hard to get through the day
Bm                     A                       D            A
'Cos I need you right now and right now you're so far away
D            A
I guess that I should have known 
|---bassline 1--|
|---------------|
|---------------|
|---------------|
|-0--0-1-2------|
|---4-----------|
Bm                    G
 That'll end that this way (?)
Bm                       A                          D          A
 But I swear I'll come home and then nothing will drag me away

Chorus:
D               Bm
Don't you ever leave me baby
D               Bm
Don't you ever leave me now
D               Bm
Don't you ever leave me baby
D                        Bm
If you'll leave me you will kill me now

The "rap" part:
A-G  Bm  A  
G    Bm  A

D                A               bassline 1
The lights are slowly going down
Bm             G         Bm
On Lexington Avenue and me, 
Bm        A
I'm all alone
              D                         A
Feeling the tears running down from my eyes
D            A                bassline 1                             
The subway train is passing by
Bm         G 
Driving into the darkness
Bm       A                    D                 A
I jump inside 'cos I've got nowhere to sleep tonight

Chorus:
D               Bm
Don't you ever leave me baby
D               Bm
Don't you ever leave me now
D               Bm
Don't you ever leave me baby
D                        Bm
If you'll leave me you will kill me now

The "rap" part revisited:
A-G  Bm  A  
G    Bm  A

Guitar solos:
2x verse chords 


e|--------------------------------13b15-13b15-13b15~~-|
B|----------------------------------------------------|
G|------------------------4-7-9-11--------------------|
D|--------------------4-7-----------------------------|
A|-9s5-5~~-5-5----5-7---------------------------------|
E|----------------------------------------------------|




e|12h14p12h14--------------------------------------|
B|-----------12h15p12h15---------------------------|
G|----------------------11h14p11h14----------------|
D|---------------------------------14-12-----------|
A|--------------------------------------14-12------|
E|--------------------------------------------14-12|


e---------------------------------------12-|
B|----------------------------12-12~~-15---|
G|---------------14~-------14--------------|
D|---------------14~--14b16----------------|
A|-----12-14-14----------------------------|
E|12b14------------------------------------|



e|12------------------------------------------------------------|
B|--151515-141414-121212----------------------------------------|
G|-----------------------141414-121212-111111-------------------|
D|-----------------------141414-121212-111111-------------------|
A|--------------------------------------------141414-12-11-12~~-|
E|--------------------------------------------------------------|


This is where guitar 2 comes in:

First 9 notes are played over Andy's solo.
e-----------------------------------|
B|----------------------------------|
G|-11-11--11-11-11-11-11-9---9------|
D|------------------------12---12~~-|
A|----------------------------------|
E|----------------------------------|


e|-----------------------------------------|
B|-----------------------------------------|
G|-------------------------------------7~~-|
D|12-11----12-11----------------------7----|
A|-----12-------12~~--9-10-12-9 7-5--------|
E|----------------------------------7------|


e|------------------------------------------------------------------|
B|----------------------101010---------------10101010---------------|
G|------------2-4---9b11------9b11r9-7---9b11---------9b11r9-7-9-7~~|
D|----------4-------------------------------------------------------|
A|2--5-5-5b6--------------------------------------------------------|
E|------------------------------------------------------------------|


e|---------7-10-7--------------------------------|
B|----7-10--------10-7---------------------------|
G|7-9------------------9-7-----------------------|
D|-------------------------9-7-------------------|
A|-----------------------------9-7-----7b9r7-5~~-|
E|---------------------------------10-7----------|


Ending:
Repeat chorus & fade out
            

comments powered by Disqus
↑ Back to top | Hanoi Rocks Tabs for Don't You Ever Leave Me. Lyrics for acoustic guitar and electric guitar. Tablatures and chords are parodies/interpretations of the original songs. You may use it for private study, scholarship, research or language learning purposes only