» » »

Hanoi Rocks, Fashion Tabs (ver.1)

Artists:  A B C D E F G H I J K L M N O P Q R S T U V W X Y Z # 

Fashion Tabs (ver.1)

Hanoi Rocks Tabs
Rating:
5/5 (3 votes)
Fashion lessons Tabs too difficult? Try these video lessons and learn fast
                                          Hanoi Rocks - Fashion
       I like this song and saw nobody has tabbed it out(only chords)so i do :P

------------------------------------------------------------------------------|
------------------------------------------------------------------------------|
------------------------------------------------------------------------------|
12\--------------4--5-------0-2------------------2h4--2----2--0h2p0-----------|
12\------2----2----------0------0-------0--2-5------------5----------4--0--2--|
12\---------------------------------------------------------------------------|

-------------------------------------------------------------------|
-------------------------------------------------------------------|
-------------------------------------------------------------------|
------4--5-------0-2------------------2h4--2----2--0h2p0-----------|
---2----------0------0-------0--2-5------------5----------4--0--2--|
-------------------------------------------------------------------|
            

comments powered by Disqus
↑ Back to top | Hanoi Rocks Tabs for Fashion. Lyrics for acoustic guitar and electric guitar. Tablatures and chords are parodies/interpretations of the original songs. You may use it for private study, scholarship, research or language learning purposes only